>
 >
Dreams

Dreams Guitar Tabs

Sammy Hagar - Dreams chords, tabs, tablatures, lyrics

Guitar lessons | Add/correct | Request | Top 50 tabs Artists:  A B C D E F G H I J K L M N O P Q R S T U V W X Y Z 0-9

Dreams Guitar Tabs – Sammy Hagar

CD, Sheet music, Poster

Do you like Dreams? Share with your friends now
Tabs
Verse 1 
Am                             G      F            G                               Am
World turns black and white, pictures in an empty room. 
Am                          G          F            G                          Am
Your love starts fallin' down, better change your tune. 
     Am                                        G      F        G                 Am
Yeah, you reach for the golden ring, reach of the sky. 
             F                             G
Baby just spread your wings, and get...

Chorus
Em                 F                          Am7           G
Higher and higher, Higher and higher, straight up we'll climb. 
Em                 F                          Am7           G
We'll get higher and higher, higher and higher, leave it all behind. 

Verse 2 
Am                G   F         G                                            Am
Run, run, run away, like a train runnin' off the track. 
      Am                           G       F                  G                 Am
Got the truth bein' left behind, fall between the cracks. 
 Am                         G    F            G                    Am 
Standin' on broken dreams, never losing sight. 
                              F                 G
Oh! Well, just spread your wings. We'll get

Chorus 

Bridge 
      Em            F
So baby, dry your eyes, 
     Am7                    G
Save all the tears you've cried. 
     F            Am7      G
Oh, that's what dreams are made of. 
      Em      F        Em                G
'Cause we belong in a world that must be strong. 
     F            C        G
Oh, that's what dreams are made of. 

E|----------------------------------------------------|
B|----------------------------------------------------|
G|-------15-15-17b-15-15--------15-15-17b-19-15-14-14-|
D|-15-17------------------15-17-----------------------|
A|----------------------------------------------------|
E|----------------------------------------------------|

E|---------------------------------------------------------|
B|---------------------18~---------------------------------|
G|-------15-15-17b-20~-----19~---17~19~17~15~2020-1919-1717|
D|-15-17---------------------------------------------------|
A|---------------------------------------------------------|
E|---------------------------------------------------------|


Yeah, we'll get

Chorus 2
Em                 F                          Am7           G                  
Higher and higher, higher and higher, straight up we'll climb. 
Em                 F                          Am7           G
Higher and higher, higher and higher, leave it all behind. 
              Em                 F                          Am7           G
Oh, we'll get higher and higher, higher and higher, who knows what we'll find. 
 
    Em      F      Am7             G              
And in the end on dreams we will depend. 
        F           Am7         G
'Cause that's what love is made of.

E|--13-13-10--------8-5-1-3~--h5p--|
B|------------11-------------------|
G|----------------10---------------|
D|---------------------------------|
A|---------------------------------|
E|---------------------------------|





Comments


Popular Sammy Hagar tabs & chords
I Don't Need Love Bass Tabs
Three Lock Box Bass Tabs
I Can't Drive 5 Chords
Baby's On Fire Tabs
Cant Get Loose Tabs
Dreams Intro Tabs
Right On Right Tabs
Sailin Tabs
Back Into You Ukulele
Eagles Fly Ukulele


Song lyrics



↑ Back to top | Tablatures and chords are parodies/interpretations of the original songs. You may use it for private study, scholarship, research or language learning purposes only
© 2014 AZChords.com Contact us | Privacy policy | DMCA | Add/correct tabs | Request tabs | Top 50 tabs