» » »

Saliva, Superstar Tabs (ver.1)

Artists:  A B C D E F G H I J K L M N O P Q R S T U V W X Y Z # 

Superstar Tabs (ver.1)

Saliva Tabs
Rating:
0/5 (0 votes)
Hard to play? Try these video lessons and learn fast.
                i tabbed this because i found that the only good tab of this song 
was wrong in some spots. im hoping that this is 100% right (minus the solo, for now).

PM-Palm Mute
/-Slide Up
\-Slide Down
~-Vibrato

Intro/Chorus:
eb|----------------------------------------------------
Bb|----------------------------------------------------
Gb|----------------------------------------------------
Db|-0-3-0-3-0-0----0-0-0-3-0-0----0-3-0-3-0-0-3-3-5-5--
Ab|-0-3-0-3-0-0----0-0-0-3-0-0----0-3-0-3-0-0-3-3-5-5--
Db|-0-3-0-3-0-0----0-0-0-3-0-0----0-3-0-3-0-0-3-3-5-5--
Intro (cont.)
eb|----------------------------------------------------
Bb|----------------------------------------------------
Gb|----------------------------------------------------
Db|-0-3-0-3-0-0----0-0-0-3-0-0----0-3-0-3-0-0-5-5-3-3--
Ab|-0-3-0-3-0-0----0-0-0-3-0-0----0-3-0-3-0-0-5-5-3-3--
Db|-0-3-0-3-0-0----0-0-0-3-0-0----0-3-0-3-0-0-5-5-3-3--

Verse:
eb|----------------------------------------------------
Bb|----------------------------------------------------
Gb|----------------------------------------------------
Db|-0-3-0-3-0-0----0-0-0-3-0-0----0-3-0-3-0-0-3-3-5-5--
Ab|-0-3-0-3-0-0----0-0-0-3-0-0----0-3-0-3-0-0-3-3-5-5--
Db|-0-3-0-3-0-0----0-0-0-3-0-0----0-3-0-3-0-0-3-3-5-5--
PM  . . . . . .    . . . . . .    . . . . . . . . . .  
eb|----------------------------------------------------
Bb|----------------------------------------------------
Gb|----------------------------------------------------
Db|-0-3-0-3-0-0----0-0-0-3-0-0----0-3-0-3-0-0-5-5-3-3--
Ab|-0-3-0-3-0-0----0-0-0-3-0-0----0-3-0-3-0-0-5-5-3-3--
Db|-0-3-0-3-0-0----0-0-0-3-0-0----0-3-0-3-0-0-5-5-3-3--
PM  . . . . . .    . . . . . .    . . . . . . . . . .  

Bridge:
eb|------------------------------
Bb|------------------------------
Gb|-7~--5~-----------------------
Db|-7~--5~--5~--3~---------------
Ab|-5~--3~--5~--3~---------------
Db|---------5~--3~---------------

i will add the solo later. its not too hard so it wont take long to tab.

Sequence:
Intro: 1x
Verse: 2x
Chorus:1x
Verse: 2x
Chorus:2x
Bridge:2x
Solo:  1x
Verse: 2x
Chorus:2x
Bridge:4x
Chorus:2x
            

comments powered by Disqus
↑ Back to top | Saliva Tabs for Superstar. Lyrics for acoustic guitar and electric guitar. Tablatures and chords are parodies/interpretations of the original songs. You may use it for private study, scholarship, research or language learning purposes only