» » »

Saliva, Superstar Tabs (ver.2)

Artists:  A B C D E F G H I J K L M N O P Q R S T U V W X Y Z # 

Superstar Tabs (ver.2)

Saliva Tabs
 Rating:
4/5 (4 votes)
Superstar lessons Tabs too difficult? Try these video lessons and learn fast
                Part 1, 2 time then palm mute 4 times
eb|----------------------------------------------------
Bb|----------------------------------------------------
Gb|----------------------------------------------------
Db|-0-3-0-3-0-0----0-0-0-3-0-0----0-3-0-3-0-0-5-5-3-3--
Ab|-0-3-0-3-0-0----0-0-0-3-0-0----0-3-0-3-0-0-5-5-3-3--
Db|-0-3-0-3-0-0----0-0-0-3-0-0----0-3-0-3-0-0-5-5-3-3--

Part 2, 2 times
eb|------------------------------
Bb|------------------------------
Gb|------------------------------
Db|-0-0-3/5--0-0-3/5--0-0-3/5\3--
Ab|-0-0-3/5--0-0-3/5--0-0-3/5\3--
Db|-0-0-3/5--0-0-3/5--0-0-3/5\3--

Part 1, 4 times (palm mute)

Part 2, 4 times

Part 3, 2 times
eb|------------------------------
Bb|------------------------------
Gb|-7---5------------------------
Db|-7---5---5---3----------------
Ab|-5---3---5---3----------------
Db|---------5---3----------------

Part 1, 2 times (solo part soon to come)

Part 1, 4 times (palm mute)

Part 2, 4 times

Part 3, 4 times

Part 1, 4 times

  ____    _____
 (    `--'  .-'`           T_T_T_T_
 |{| O  O  |||||||||||||||[o o o o/
 (__,--.____',             `--`--'
            
Submit corrections

comments powered by Disqus
↑ Back to top | Saliva Tabs for Superstar. Lyrics for acoustic guitar and electric guitar. Tablatures and chords are parodies/interpretations of the original songs. You may use it for private study, scholarship, research or language learning purposes only