>
 >
Family Reunion 1

Family Reunion 1 Guitar Tabs

Saliva - Family Reunion 1 chords, tabs, tablatures, lyrics

Guitar lessons | Add/correct | Request | Top 50 tabs Artists:  A B C D E F G H I J K L M N O P Q R S T U V W X Y Z 0-9

Family Reunion 1 Guitar Tabs – Saliva

CD, Sheet music, Poster

Do you like Family Reunion 1? Share with your friends now
TabsTabs v2
----------------------------------------------------------------------------------
                              FAMILY REUNION - Saliva
----------------------------------------------------------------------------------


Tuning: Drop Db
__________________________________________________________________________________

intro | repeat 2x

eb|-----------------------------------------------|
Bb|-----------------------------------------------|
Gb|-----------------------------------------------|
Db|-3-0-x-x-0-3-0-x-x-0-3-0-x-x-0-3-5-5-5-5-3-x-x-|
Ab|-3-0-x-x-0-3-0-x-x-0-3-0-x-x-0-3-5-5-5-5-3-x-x-|
Db|-3-0-x-x-0-3-0-x-x-0-3-0-x-x-0-3-5-5-5-5-3-x-x-|


verse | repeat 4x - palm mute throughout

eb|-------------------------------------------------------------------------|
Bb|-------------------------------------------------------------------------|
Gb|-------------------------------------------------------------------------|
Db|-0-0-0-0-0-0-0-0-3-3-3-3-3-3-3-3-10-10-10-10-10-10-10-10-5-5-5-5-5-5-5-5-|
Ab|-0-0-0-0-0-0-0-0-3-3-3-3-3-3-3-3-10-10-10-10-10-10-10-10-5-5-5-5-5-5-5-5-|
Db|-0-0-0-0-0-0-0-0-3-3-3-3-3-3-3-3-10-10-10-10-10-10-10-10-5-5-5-5-5-5-5-5-|


pre chorus | repeat 2x

eb|-----------------------------------------------|
Bb|-----------------------------------------------|
Gb|-----------------------------------------------|
Db|-3-0-x-x-0-3-0-x-x-0-3-0-x-x-0-3-5-5-5-5-3-x-x-|
Ab|-3-0-x-x-0-3-0-x-x-0-3-0-x-x-0-3-5-5-5-5-3-x-x-|
Db|-3-0-x-x-0-3-0-x-x-0-3-0-x-x-0-3-5-5-5-5-3-x-x-|


chorus | repeat 2x

   (guitar 1)

eb|---------------------------------------|
Bb|---------------------------------------|
Gb|---------------------------------------|
Db|-0-0-0-0-10-10-10-10-9-9-9-9-8-8-10-10-|
Ab|-0-0-0-0-10-10-10-10-9-9-9-9-8-8-10-10-|
Db|-0-0-0-0-10-10-10-10-9-9-9-9-8-8-10-10-|
  |
  |
  |(guitar 2)
  | 
eb|-10-(hold throughout chorus)-|
Bb|-10-(hold throughout chorus)-|
Gb|-----------------------------|
Db|-----------------------------|
Ab|-----------------------------|
Db|-----------------------------|


bridge | repeat 2x

eb|--------------------------------------------|
Bb|--------------------------------------------|
Gb|--------------------------------------------|
Db|-0-x-x--x--0-x-x--x-3-5-5-5-5-3-3-5-5-5-5-3-|
Ab|-0-x-x--x--0-x-x--x-3-5-5-5-5-3-3-5-5-5-5-3-|
Db|-0-x-x--x--0-x-x--x-3-5-5-5-5-3-3-5-5-5-5-3-|


verse | repeat 4x - palm mute throughout

eb|-------------------------------------------------------------------------|
Bb|-------------------------------------------------------------------------|
Gb|-------------------------------------------------------------------------|
Db|-0-0-0-0-0-0-0-0-3-3-3-3-3-3-3-3-10-10-10-10-10-10-10-10-5-5-5-5-5-5-5-5-|
Ab|-0-0-0-0-0-0-0-0-3-3-3-3-3-3-3-3-10-10-10-10-10-10-10-10-5-5-5-5-5-5-5-5-|
Db|-0-0-0-0-0-0-0-0-3-3-3-3-3-3-3-3-10-10-10-10-10-10-10-10-5-5-5-5-5-5-5-5-|


pre chorus | repeat 2x

eb|-----------------------------------------------|
Bb|-----------------------------------------------|
Gb|-----------------------------------------------|
Db|-3-0-x-x-0-3-0-x-x-0-3-0-x-x-0-3-5-5-5-5-3-x-x-|
Ab|-3-0-x-x-0-3-0-x-x-0-3-0-x-x-0-3-5-5-5-5-3-x-x-|
Db|-3-0-x-x-0-3-0-x-x-0-3-0-x-x-0-3-5-5-5-5-3-x-x-|


chorus | repeat 2x

   (guitar 1)

eb|---------------------------------------|
Bb|---------------------------------------|
Gb|---------------------------------------|
Db|-0-0-0-0-10-10-10-10-9-9-9-9-8-8-10-10-|
Ab|-0-0-0-0-10-10-10-10-9-9-9-9-8-8-10-10-|
Db|-0-0-0-0-10-10-10-10-9-9-9-9-8-8-10-10-|
  |
  |
  |(guitar 2)
  | 
eb|-10-(hold throughout chorus)-|
Bb|-10-(hold throughout chorus)-|
Gb|-----------------------------|
Db|-----------------------------|
Ab|-----------------------------|
Db|-----------------------------|


bridge | repeat 2x

eb|--------------------------------------------|
Bb|--------------------------------------------|
Gb|--------------------------------------------|
Db|-0-x-x--x--0-x-x--x-3-5-5-5-5-3-3-5-5-5-5-3-|
Ab|-0-x-x--x--0-x-x--x-3-5-5-5-5-3-3-5-5-5-5-3-|
Db|-0-x-x--x--0-x-x--x-3-5-5-5-5-3-3-5-5-5-5-3-|


pre solo | repeat 2x

eb|--------------------------------------------------------------|
Bb|--------------------------------------------------------------|
Gb|--------------------------------------------------------------|
Db|-0-0-0-0-2-2-2--3-3-3-3-4-4-4-4--7-7-7-7-8-8-8-10-10-10-10-12\|
Ab|-0-0-0-0-2-2-2--3-3-3-3-4-4-4-4--7-7-7-7-8-8-8-10-10-10-10-12\|
Db|-0-0-0-0-2-2-2--3-3-3-3-4-4-4-4--7-7-7-7-8-8-8-10-10-10-10-12\|


durning drum/bass solo, play this fill continuosly
   ______________________
  |---------------------*|
  |                      |
  |  eb|-10-10-10-10-|   |  
  |  Bb|-10-10-10-10-|   |  
  |  Gb|-------------|   |
  |  Db|-------------|   |
  |  Ab|-------------|   |
  |  Db|-------------|   |
  |                      |
  |______________________|
  |---------------------*|


solo | repeat 1x

eb|-5h8p6p5h8p6p5h8p6p5h8p64h7p4h7p4h7p4h7p4h7p4h7p5h8p6p5h8p6p5h8p6p5h8p64-|
Bb|-------------------------------------------------------------------------|
Gb|-------------------------------------------------------------------------|
Db|-------------------------------------------------------------------------|
Ab|-------------------------------------------------------------------------|
Db|-------------------------------------------------------------------------|

eb|-8h11p8h11p8h11p8h11p8h11p8h11p-|
Bb|--------------------------------|
Gb|--------------------------------|
Db|--------------------------------|
Ab|--------------------------------|
Db|--------------------------------|

eb|-15b17--13b15---------------------------------------------------------------------|
Bb|-------------10TR13----9TR12----10TR13--13*^^------------------15--13-15-13h15p13-|
Gb|-------------------------------------------------------------------------12-14-12-|
Db|----------------------------------------------------------------------------------|
Ab|----------------------------------------------------------------------------------|
Db|----------------------------------------------------------------------------------|

Eb|------------------------------------------|-10h13p10------10h13p10---------------------|
Bb|------------------------------------------|---------10-13~--------10-13~10-12-13-12-10-|
Gb|------------------------------------------|--------------------------------------------|
Db|-15-12-15b17-12---------------------------|--------------------------------------------|
Ab|---------------15-12-11-10----------------|--------------------------------------------|
Db|--------------------------12-15-12-0-0-15-|--------------------------------------------|

Eb|----------------------------|-13-13-13----13-13-13----13-13-13\-|
Bb|-12-10----------------------|-12-12-12-12-12-12-12-12-12-12-12\-|
Gb|------10------10-12-12b14---|-----------------------------------|
Db|--------10b12---------------|-----------------------------------|
Ab|----------------------------|-----------------------------------|
Db|----------------------------|-----------------------------------|


Eb|-17h20p17------17-------------------------|-20b22~--------------|
Bb|----------20-19--20-18---------18-20-18---|---------------------|
Gb|----------------------19-17--17--------19-|---------------------|
Db|---------------------------19-------------|---------------------|
Ab|------------------------------------------|---------------------|
Db|------------------------------------------|---------------------|


chorus | repeat 2x

   (guitar 1)

eb|---------------------------------------|
Bb|---------------------------------------|
Gb|---------------------------------------|
Db|-0-0-0-0-10-10-10-10-9-9-9-9-8-8-10-10-|
Ab|-0-0-0-0-10-10-10-10-9-9-9-9-8-8-10-10-|
Db|-0-0-0-0-10-10-10-10-9-9-9-9-8-8-10-10-|
  |
  |
  |(guitar 2)
  | 
eb|-10-(hold throughout chorus)-|
Bb|-10-(hold throughout chorus)-|
Gb|-----------------------------|
Db|-----------------------------|
Ab|-----------------------------|
Db|-----------------------------|


outro | repeat 2x

eb|--------------------------------------------|
Bb|--------------------------------------------|
Gb|--------------------------------------------|
Db|-0-x-x--x--0-x-x--x-3-5-5-5-5-3-3-5-5-5-5-3-|
Ab|-0-x-x--x--0-x-x--x-3-5-5-5-5-3-3-5-5-5-5-3-|
Db|-0-x-x--x--0-x-x--x-3-5-5-5-5-3-3-5-5-5-5-3-|





Comments


Popular Saliva tabs & chords
King Of My World Bass Tabs
Never Shouldve Let You Go Chords
All Because Of You Tabs
Back Into Your System Tabs
Bleed For Me 1 Tabs
Doperide (Intro) Tabs
Greater Than / Less Than Tabs
How Could You? Tabs
I Walk Alone Tabs
Weight Of The World 2 Tabs


Song lyrics



↑ Back to top | Tablatures and chords are parodies/interpretations of the original songs. You may use it for private study, scholarship, research or language learning purposes only
© 2014 AZChords.com Contact us | Privacy policy | DMCA | Add/correct tabs | Request tabs | Top 50 tabs