>
 >
Family Reunion

Family Reunion Guitar Tabs

Saliva - Family Reunion chords, tabs, tablatures, lyrics

Guitar lessons | Add/correct | Request | Top 50 tabs Artists:  A B C D E F G H I J K L M N O P Q R S T U V W X Y Z 0-9

Family Reunion Guitar Tabs – Saliva

CD, Sheet music, Poster

Do you like Family Reunion? Share with your friends now
TabsTabs v2
Saliva - "Family Reunion"
Tuning: Drop Db (Db Ab Db Gb Bb Eb)

I thought this song had a nice solo and the riffs are simple but 
fat sounding. Let me know how I did & rate this please!

Intro/Pre-Chorus (play 2x):
   Guitar 1
Eb|-----------------------------|-------------------------------|
Bb|-----------------------------|-------------------------------| 
Gb|-----------------------------|-------------------------------| 
Db|--0h3--0--x-x---0h3--0--x-x--|--0h3--0--x-x---0h3/5--5-5--3--|
Ab|--0h3--0--x-x---0h3--0--x-x--|--0h3--0--x-x---0h3/5--5-5--3--|
Db|--0h3--0--x-x---0h3--0--x-x--|--0h3--0--x-x---0h3/5--5-5--3--|
  |
  |Guitar 2
Eb|-----------------------------|-------------------------------|
Bb|---10-10---------10-10-------|---10-10--------10/12-12-12-10-| 
Gb|---10-10---------10-10-------|---10-10--------10/12-12-12-10-| 
Db|-----------------------------|-------------------------------| 
Ab|-----------------------------|-------------------------------|
Db|-----------------------------|-------------------------------|


Verses-  play 4x (let ring for 8 beats)
Eb|--13-----------|---------------|
Bb|--10-----------|---------------|
Gb|--10-----------|---------------|
Db|--0------------|---------------|
Ab|---------------|---------------|
Db|---------------|---------------|


Play Intro/Pre-Chorus


Chorus:
Guitar 1
Eb|-------------------------|-------------------------|-------------------------|
Bb|-------------------------|-------------------------|-------------------------|
Gb|---7---------------------|---5---------------------|---4---------------------|
Db|---7---------------------|---5---------------------|---4---------------------|
Ab|---5---------------------|---3---------------------|---2---------------------|
Db|---0---------------------|-------------------------|-------------------------|
  |
  | Guitar 2 (high E string notes may be from another part)
Eb|-14----14----14----14----|-15----15----15----15----|-15----15----15----15----|
Bb|-15-15-15-15-15-15-15-15-|-15-15-15-15-15-15-15-15-|-15-15-15-15-15-15-15-15-|
Gb|-------------------------|-------------------------|-------------------------|
Db|-12-12-12-12-12-12-12-12-|-12-12-12-12-12-12-12-12-|-12-12-12-12-12-12-12-12-|
Ab|-------------------------|-------------------------|-------------------------|
Db|-------------------------|-------------------------|-------------------------|

   1st ending
Eb|-------------------------|
Bb|-------------------------|
Gb|---3---------------------|
Db|---3---------------------|
Ab|---1---------------------|
Db|-------------------------|
  |
  |
Eb|-13----13----15----15----|
Bb|-15-15-15-15-15-15-15-15-|
Gb|-------------------------|
Db|-12-12-12-12-12-12-12-12-|
Ab|-------------------------|
Db|-------------------------|

'Boom' part (play 2x)
   Guitar 1
Eb|-------------------------|--------------------------------|
Bb|-------------------------|--------------------------------| 
Gb|-------------------------|--------------------------------| 
Db|--12\0--x-x---12\0--x-x--|---3/5--5--5--3---3/5--5--5--3--|
Ab|--12\0--x-x---12\0--x-x--|---3/5--5--5--3---3/5--5--5--3--|
Db|--12\0--x-x---12\0--x-x--|---3/5--5--5--3---3/5--5--5--3--|
  |
  | Guitar 1
Eb|-------------------------|---------------------------------|
Bb|-------------------------|--10/12-12-12-10-10/12-12-12-10--| 
Gb|-------------------------|--10/12-12-12-10-10/12-12-12-10--| 
Db|--12\0--x-x---12\0--x-x--|---------------------------------|
Ab|--12\0--x-x---12\0--x-x--|---------------------------------|
Db|--12\0--x-x---12\0--x-x--|---------------------------------|


Play Verses Riff again & Intro/Pre-Chorus
Play Chorus & Boom part

Break-  play line 2x
Eb|--------------------------------|---------------------------------------|
Bb|--------------------------------|---------------------------------------|
Gb|--------------------------------|---------------------------------------|
Db|--0-0-0-0/2-2-2---3-3-3-3/5-5-5-|-7-7-7-7/8-8-8---10-10-10-10/11-11-11--|
Ab|--0-0-0-0/2-2-2---3-3-3-3/5-5-5-|-7-7-7-7/8-8-8---10-10-10-10/11-11-11--|
Db|--0-0-0-0/2-2-2---3-3-3-3/5-5-5-|-7-7-7-7/8-8-8---10-10-10-10/11-11-11--|

   play this 4x until drum fill
Eb|------------------|
Bb|------------------|
Gb|--7---7---7---7---|
Db|----0---0---0---0-|
Ab|------------------|
Db|------------------|


Solo- w/ wah                    PH & Trem bar vibrato
Eb|-----------------|------------------|-15b17--13b15----------------------------|
Bb|-10TR13----9TR12-|---10TR13--13*^^--|--------------15--13-15-13h15p13---------|
Gb|-----------------|------------------|--------------------------------12-14-12-|
Db|-----------------|------------------|-----------------------------------------|
Ab|-----------------|------------------|-----------------------------------------|
Db|-----------------|------------------|-----------------------------------------|

Eb|------------------------------------------|-10h13p10------10h13p10---------------------|
Bb|------------------------------------------|---------10-13~--------10-13~10-12-13-12-10-|
Gb|------------------------------------------|--------------------------------------------|
Db|-15-12-15b17-12---------------------------|--------------------------------------------|
Ab|---------------15-12-11-10----------------|--------------------------------------------|
Db|--------------------------12-15-12-0-0-15-|--------------------------------------------|

Eb|----------------------------|-13-13-13----13-13-13----13-13-13\-|
Bb|-12-10----------------------|-12-12-12-12-12-12-12-12-12-12-12\-|
Gb|------10------10-12-12b14---|-----------------------------------|
Db|--------10b12---------------|-----------------------------------|
Ab|----------------------------|-----------------------------------|
Db|----------------------------|-----------------------------------|


Eb|-17h20p17------17-------------------------|-20b22~--------------|
Bb|----------20-19--20-18---------18-20-18---|---------------------|
Gb|----------------------19-17--17--------19-|---------------------|
Db|---------------------------19-------------|---------------------|
Ab|------------------------------------------|---------------------|
Db|------------------------------------------|---------------------|

During solo a rhythm Guitar plays the Intro/Prechorus riff throughout

End:
Play Chorus again
Play 'Boom' part to end it


Key:
b - bend
r - release bend
h - hammer-on
p - pull-off
* - harmonic
^ - Trem Bar vibrato
/ - slide up
\ - slide down
~ - hand vibrato
x - muted strings
TR - trill (bounce between the 2 notes shown rapidly)





Comments


Popular Saliva tabs & chords
Beg 1 Bass Tabs
Bleed For Me Bass Tabs
Superstar 2 Bass Tabs
Broken Sunday Chords
Black Sheep Tabs
King Of The Stereo 1 Tabs
Razors Edge Tabs
Weight Of The World Tabs
Never Shouldve Let You Go Ukulele
Rest In Pieces 2 Ukulele


Song lyrics



↑ Back to top | Tablatures and chords are parodies/interpretations of the original songs. You may use it for private study, scholarship, research or language learning purposes only
© 2014 AZChords.com Contact us | Privacy policy | DMCA | Add/correct tabs | Request tabs | Top 50 tabs