» » »

Saliva, Click Click Boom Bass tabs (ver.1)

Artists:  A B C D E F G H I J K L M N O P Q R S T U V W X Y Z # 

Click Click Boom Bass tabs (ver.1)

Saliva Tabs
 Rating:
4.3/5 (6 votes)
Click Click Boom lessons Tabs too difficult? Try these video lessons and learn fast
                ok guys.  ive seen a couple tabs on here and i must say they are close not "perfect"  as
"said"  so here it is.  Tuning: standard.  Double Picking (if u use a pick) is
for it to sound good.


Intro:
G-------------------------------|  x4
D-------------------------------|
A---4-2-4-2-----------4-2-4-2---|
E-----------2222-000------------|

Verse:
G---------------|  x8
D---------------|
A--455-77h9p7---|
E---------------|

back to intro x4

Pre-Chorus         frets for pre chorus  timing u figure on ur own
G------------|
D------------|
A---0-2----0-|
E-------2-4--|

back to intro  x2

back to verse  x8

back to intro  x4

back to pre chorus x2

back to intro  x4

G-----------------------|
D-----------------------|
A-444-22222-------------|
E-----------222-00000---|  x4

G---------------------------|
D---------------------------|
A--4--0--2------------------|
E----------2----------------|               timing found by urself

outro same as intro...   if u notice the  E--222--000 in the outro its because i was too
to tab it and im pretty sure youll see tht its the same as the intro

ok guys thats it.. the RIGHT way  any questions or concerns feel free to email 
            
Submit corrections

comments powered by Disqus
↑ Back to top | Saliva Bass for Click Click Boom. Lyrics for acoustic guitar and electric guitar. Tablatures and chords are parodies/interpretations of the original songs. You may use it for private study, scholarship, research or language learning purposes only