» » »

Click Click Boom Bass tabs (ver.2)

Artists:  A B C D E F G H I J K L M N O P Q R S T U V W X Y Z # 

Click Click Boom Bass tabs (ver.2)

Saliva
Rating:
3/5 (3 votes)

Hard to play? Try these video lessons and learn fast.
                Tuning: Standard: Right: EADG

Intro/Chorus: 
G|------------------------------|
D|------------------------------| 
A|-4-2-0-2-----------4-2-2-2----|
E|----------2-2-2-0-------------|

Pre-chorus:
G|---------------------------|
D|---------------------------|
A|--4-4-4----5-5-5----7-7----|
E|---------------------------|

Bridge:
G|----------------------------------------------------------------|
D|----------------------------------------------------------------|
A|---------------------------------4-4-4-4-4-4-4—4-4-4-4-4-4-4-4-4|
E|-5-5-5-5-5-5-5-5-5-5-5-5-5-5-5-5--------------------------------|

G|----------------------------------------------------------------|
D|----------------------------------------------------------------|
A|----------------------------------------------------------------|
E|-5-5-5-5-5-5-5-5-5-5-5-5-5-5-5-5-2-2-2-2-2-2-2-2-2-2-2-2-2-2-2-2|


Riff:
G|---------------------------------|
D|---------------------------------|    
A|-4-4-4----------2-2-2------------|
E|-------5-5-5-5--------2-2-2-2p0--|
            
Hard to play? Try these video lessons and learn fast. | Correct




comments powered by Disqus
↑ Back to top | Tablatures and chords are parodies/interpretations of the original songs. You may use it for private study, scholarship, research or language learning purposes only