>
 >
Always 2

Always 2 Guitar Tabs

Saliva - Always 2 chords, tabs, tablatures, lyrics

Guitar lessons | Add/correct | Request | Top 50 tabs Artists:  A B C D E F G H I J K L M N O P Q R S T U V W X Y Z 0-9

Always 2 Guitar Tabs – Saliva

CD, Sheet music, Poster

Do you like Always 2? Share with your friends now
Bass TabsBass Tabs v2Bass Tabs v3ChordsTabsTabs v2Tabs v3Tabs v4Ukulele
Always - Saliva

Intro

Guitar 1
e---------------------------|----------------------------|
B---------------------------|--5----5--------------------|
G---------------------------|----------------------------|
D---------------------------|----------------------------|
A---------------------------|----------------------------|
E---------------------------|----------------------------|
|   I Hear A Voice Say Don't    It's Telling Me All The Things  |
|        Be So Blind                U Would Probably Hind.      |
|                                                               |
Guitar 2                                                        |
e---------------------------|----------------------------|
B---------------------------|----------------------------|
G---------------------------|----------------------------|
D—-----2----5----0----7-----|—-----2----5----0----7------|
A-----2-2—-5-5—-0-0—-7—7----|-----2-2—-5-5—-0-0—-7—7-----|
E—---0----3----0----5-------|—---0----3----0----5--------|

Guitar 1
e---------------------------|----------------------------|
B---------------------------|--5----5--------------------|
G---------------------------|----------------------------|
D---------------------------|----------------------------|
A---------------------------|----------------------------|
E---------------------------|----------------------------|
|   Am I Your One And Only       Am I the reason you breathe |
|          Desire                or am I the reason you cry. |
|                                                            |
Guitar 2                                                     |
e---------------------------|----------------------------|
B---------------------------|----------------------------|
G---------------------------|----------------------------|
D—-----2----5----0----7-----|—-----2----5----0----7------|
A-----2-2—-5-5—-0-0—-7—7----|-----2-2—-5-5—-0-0—-7—7-----|
E—---0----3----0----5-------|—---0----3----0----5--------|

Pre-Chorus
Guitar 1
e-3-----------|2-----2-----2----|-3---3---3---3---|--5-----5-----7-----7-|
B-3-----------|---5-----5-----5-|-3-5---5---5---5-|-----5-----5-----5---5|
G-0-----------|-----------------|-0---------------|----------------------|
D-------------|-----------------|-----------------|----------------------|
A-------------|-----------------|-----------------|----------------------|
E-------------|-----------------|-----------------|----------------------|
| Always Always   Always Always     Always Always     I Just Can't Live  |
|                                                       Without You      |
|                                                                        |
Guitar 2                                                                 |
e-----------------|-----------------|-----------------|-----------------|
B-----------------|-----------------|-----------------|-----------------|
G-----------------|-----------------|-----------------|-----------------|
D-2-2-2-2-2-2-2-2-|-5-5-5-5-5-5-5-5-|-0-0-0-0-0-0-0-0-|-7-7-7-7-7-7-7-7-|
A-2-2-2-2-2-2-2-2-|-5-5-5-5-5-5-5-5-|-0-0-0-0-0-0-0-0-|-7-7-7-7-7-7-7-7-|
E-0-0-0-0-0-0-0-0-|-5-5-5-5-5-5-5-5-|-0-0-0-0-0-0-0-0-|-5-5-5-5-5-5-5-5-|

Chorus (Both Guitars)

e-------------|-------------|-------------|-------------|
B-------------|-------------|-------------|-------------|
G-------------|-------------|-------------|-------------|
D-----2-2-----|-----5-5-----|-----0-0-----|-----7-7-----|
A-----2-2-----|-----5-5-----|-----0-0-----|-----7-7-----|
E-----0-0-----|-----3-3-----|-----0-0-----|-----5-5-----|
   I Love U       I Hate U    I Can't Live    Around U

e-------------|-------------|-------------|-------------|
B-------------|-------------|-------------|-------------|
G-------------|-------------|-------------|-------------|
D-----2-2-----|-----5-5-----|-----0-0-----|-----7-7-----|
A-----2-2-----|-----5-5-----|-----0-0-----|-----7-7-----|
E-----0-0-----|-----3-3-----|-----0-0-----|-----5-5-----|
 I breathe you  I taste you    I cant live   without you

e---------------------------------------|
B---------------------------------------|
G---------------------------------------|
D-2-2-2-2-|-5-5-5-5-|-0-0-0-0-|-7-7-7-7-|
A-2-2-2-2-|-5-5-5-5-|-0-0-0-0-|-7-7-7-7-|
E-0-0-0-0-|-3-3-3-3-|-0-0-0-0-|-5-5-5-5-|
I just can't take anymore  | I guess that I'm out the door
Its like a silencer        | and now I'm done with you.

e-0-2-3--0-2-0--0-2-0--3-2-0-|-0-2-3--0-2-0--0-2-0--3-2-0-|
B----------------------------|----------------------------|
G----------------------------|----------------------------|
D----------------------------|----------------------------|
A----------------------------|----------------------------|
E----------------------------|----------------------------|
      (Done with you)          (Done with you)
          (Done with you)              (Done with you)

Verse

Guitar 1
e---------------------------|---------------------------------|
B---------------------------|--5----5-------------------------|
G---------------------------|---------------------------------|
D---------------------------|---------------------------------|
A---------------------------|---------------------------------|
E---------------------------|---------------------------------|
|                                                                                        
                                                         |
Guitar 2                                                     |
e---------------------------|----------------------------|
B---------------------------|----------------------------|
G---------------------------|----------------------------|
D—-----2----5----0----7-----|—-----2----5----0----7------|
A-----2-2—-5-5—-0-0—-7—7----|-----2-2—-5-5—-0-0—-7—7-----|
E—---0----3----0----5-------|—---0----3----0----5--------|

Guitar 1
e---------------------------|---------------------------------|
B---------------------------|--5----5-------------------------|
G---------------------------|---------------------------------|
D---------------------------|---------------------------------|
A---------------------------|---------------------------------|
E---------------------------|---------------------------------|
|                                                                                        
                                                         |
Guitar 2                                                     |
e---------------------------|----------------------------|
B---------------------------|----------------------------|
G---------------------------|----------------------------|
D—-----2----5----0----7-----|—-----2----5----0----7------|
A-----2-2—-5-5—-0-0—-7—7----|-----2-2—-5-5—-0-0—-7—7-----|
E—---0----3----0----5-------|—---0----3----0----5--------|

Pre-Chorus
Guitar 1
e-3-----------|2-----2-----2----|-3---3---3---3---|--5-----5-----7-----7-|
B-3-----------|---5-----5-----5-|-3-5---5---5---5-|-----5-----5-----5---5|
G-0-----------|-----------------|-0---------------|----------------------|
D-------------|-----------------|-----------------|----------------------|
A-------------|-----------------|-----------------|----------------------|
E-------------|-----------------|-----------------|----------------------|
| Always Always   Always Always     Always Always     I Just Can't Live  |
|                                                       Without You      |
|                                                                        |
Guitar 2                                                                 |
e-----------------|-----------------|-----------------|-----------------|
B-----------------|-----------------|-----------------|-----------------|
G-----------------|-----------------|-----------------|-----------------|
D-2-2-2-2-2-2-2-2-|-5-5-5-5-5-5-5-5-|-0-0-0-0-0-0-0-0-|-7-7-7-7-7-7-7-7-|
A-2-2-2-2-2-2-2-2-|-5-5-5-5-5-5-5-5-|-0-0-0-0-0-0-0-0-|-7-7-7-7-7-7-7-7-|
E-0-0-0-0-0-0-0-0-|-5-5-5-5-5-5-5-5-|-0-0-0-0-0-0-0-0-|-5-5-5-5-5-5-5-5-|

Chorus (Both Guitars)

e-------------|-------------|-------------|-------------|
B-------------|-------------|-------------|-------------|
G-------------|-------------|-------------|-------------|
D-----2-2-----|-----5-5-----|-----0-0-----|-----7-7-----|
A-----2-2-----|-----5-5-----|-----0-0-----|-----7-7-----|
E-----0-0-----|-----3-3-----|-----0-0-----|-----5-5-----|
   I Love U       I Hate U    I Can't Live    Around U

e-------------|-------------|-------------|-------------|
B-------------|-------------|-------------|-------------|
G-------------|-------------|-------------|-------------|
D-----2-2-----|-----5-5-----|-----0-0-----|-----7-7-----|
A-----2-2-----|-----5-5-----|-----0-0-----|-----7-7-----|
E-----0-0-----|-----3-3-----|-----0-0-----|-----5-5-----|
 I breathe you  I taste you    I cant live   without you


e---------------------------------------|
B---------------------------------------|
G---------------------------------------|
D-2-2-2-2-|-5-5-5-5-|-0-0-0-0-|-7-7-7-7-|
A-2-2-2-2-|-5-5-5-5-|-0-0-0-0-|-7-7-7-7-|
E-0-0-0-0-|-3-3-3-3-|-0-0-0-0-|-5-5-5-5-|
I just can't take anymore  | I guess that I'm out the door
Its like a silencer        | and now I'm done with you.

I love you           I cant live
      I hate you             around you  I left my head around your heart
|--------------------|------------------|---------------------------------|
|--------------------|------------------|---------------------------------|
|--------------------|------------------|---------------------------------|
|-2-2--xx--x5-5--xx-x|0-0--xx--x7-7-7-7-|-7-7-7-7-7-7-7-7-5-5-5-5-5-5-5-5-|
|-2-2--xx--x5-5--xx-x|0-0--xx--x7-7-7-7-|-7-7-7-7-7-7-7-7-5-5-5-5-5-5-5-5-|
|-0-0--xx—-x3-3--xx-x|0-0--xx—-x5-5-5-5-|-7-7-7-7-7-7-7-7-5-5-5-5-5-5-5-5-|

Bridge
Guitar 1
|--------------------------------------|---------------------------------|
|--------------------------------------|---------------------------------|
|--------------------------------------|---------------------------------|
|--4---4--4-5--7--4---4--4--2--0-------|---------------------------------|
|-----------------------------------2--|---------------------------------|
|--------------------------------------|---------------------------------|
|                                      | ,Why would you tear             |
|                                      |                                 |
Guitar 2                               | My world apart                  |
|--------------------------------------|---------------------------------|
|--------------------------------------|---------------------------------|
|--------------------------------------|---------------------------------|
|-0-2-22—-0-2-22--3--0-2-22—-0-2-22--3-|-7-7-7-7-7-7-7-7-5-5-5-5-5-5-5-5-|
|-0-2-22—-0-2-22--3—-0-2-22--0-2-22--3-|-7-7-7-7-7-7-7-7-5-5-5-5-5-5-5-5-|
|-0-2-22—-0-2-22--3—-0-2-22—-0-2-22--3-|-7-7-7-7-7-7-7-7-5-5-5-5-5-5-5-5-|

Guitar 1
|--------------------------------------|
|--------------------------------------|
|-8-—8-—8---8--------7-5-7-5-----------|
|------------------------------7-------|
|--------------------------------------|
|--------------------------------------|
|                                      |
Guitar 2                               |
|--------------------------------------|
|--------------------------------------|
|--------------------------------------|
|-0-2-22—-0-2-22--3--0-2-22--0-2-22--3-|
|-0-2-22—-0-2-22--3--0-2-22--0-2-22--3-|
|-0-2-22—-0-2-22--3—-0-2-22--0-2-22--3-|

Both Guitars
always   always      always    always
|-----------------|-------------------------|
|-----------------|-------------------------|
|-----------------|-------------------------|
|-7-7-7-7-7-7-7-7-|-10-10-10-10-12-12-12-12-|
|-7-7-7-7-7-7-7-7-|-10-10-10-10-12-12-12-12-|
|-7-7-7-7-7-7-7-7-|-10-10-10-10-12-12-12-12-|

Verse
Guitar 1
e---------------------------|---------------------------------|
B---------------------------|--5----5-------------------------|
G---------------------------|---------------------------------|
D---------------------------|---------------------------------|
A---------------------------|---------------------------------|
E---------------------------|---------------------------------|
|                                                                                        
                                                         |
Guitar 2                                                     |
e---------------------------|----------------------------|
B---------------------------|----------------------------|
G---------------------------|----------------------------|
D—-----2----5----0----7-----|—-----2----5----0----7------|
A-----2-2—-5-5—-0-0—-7—7----|-----2-2—-5-5—-0-0—-7—7-----|
E—---0----3----0----5-------|—---0----3----0----5--------|

Guitar 1
e---------------------------|---------------------------------|
B---------------------------|--5----5-------------------------|
G---------------------------|---------------------------------|
D---------------------------|---------------------------------|
A---------------------------|---------------------------------|
E---------------------------|---------------------------------|
|                                                                                        
                                                |
Guitar 2                                                     |
e---------------------------|----------------------------|
B---------------------------|----------------------------|
G---------------------------|----------------------------|
D—-----2----5----0----7-----|—-----2----5----0----7------|
A-----2-2—-5-5—-0-0—-7—7----|-----2-2—-5-5—-0-0—-7—7-----|
E—---0----3----0----5-------|—---0----3----0----5--------|

Chorus

e-------------|-------------|-------------|-------------|
B-------------|-------------|-------------|-------------|
G-------------|-------------|-------------|-------------|
D-----2-2-----|-----5-5-----|-----0-0-----|-----7-7-----|
A-----2-2-----|-----5-5-----|-----0-0-----|-----7-7-----|
E-----0-0-----|-----3-3-----|-----0-0-----|-----5-5-----|
   I Love U       I Hate U    I Can't Live    Around U

e-------------|-------------|-------------|-------------|
B-------------|-------------|-------------|-------------|
G-------------|-------------|-------------|-------------|
D-----2-2-----|-----5-5-----|-----0-0-----|-----7-7-----|
A-----2-2-----|-----5-5-----|-----0-0-----|-----7-7-----|
E-----0-0-----|-----3-3-----|-----0-0-----|-----5-5-----|
 I breathe you  I taste you    I cant live   without you

e----------------------------------------------------------------------------|
B----------------------------------------------------------------------------|
G----------------------------------------------------------------------------|
D-2-2-2-2-|-5-5-5-5-|-0-0-0-0-|-7-7-7-7--2-2-2-2-|-5-5-5-5-|-0-0-0-0-|-7-7-7-|
A-2-2-2-2-|-5-5-5-5-|-0-0-0-0-|-7-7-7-7--2-2-2-2-|-5-5-5-5-|-0-0-0-0-|-7-7-7-|
E-0-0-0-0-|-3-3-3-3-|-0-0-0-0-|-5-5-5-5--0-0-0-0-|-3-3-3-3-|-0-0-0-0-|-5-5-5-|

I just can't take anymore  | I guess that I'm out the door
 Its like a silencer        | and now I'm done with you.

|--------------------|-------------------|------2-3--------2-3-|
|--------------------|-------------------|-5----------5--------|
|--------------------|-------------------|---0----------0------|
|--------------------|-------------------|---------------------|
|--------------------|-------------------|---------------------|
|    always   always     always    always                      |
|--------------------|-------------------|---------------------|
|--------------------|-------------------|---------------------|
|--------------------|-------------------|---------------------|
|-2-2-------5-5------|0-0-------7--------|---7------------7----|
|-2-2-------5-5------|0-0-------7--------|---7------------7----|
|-2-2-------5-5------|0-0-------7--------|---7------------7----|

Rock On People!





Comments


Popular Saliva tabs & chords
Click Click Boom 2 Bass Tabs
King Of The Stereo Bass Tabs
Bleed For Me Chords
Rest In Pieces 2 Chords
All Because Of You Tabs
Click Click Boom 1 Tabs
Is It You Tabs
Turn The Tables Intro Tabs
Weight Of The World (Intro) Tabs
Your Disease 1 Tabs


Song lyrics



↑ Back to top | Tablatures and chords are parodies/interpretations of the original songs. You may use it for private study, scholarship, research or language learning purposes only
© 2014 AZChords.com Contact us | Privacy policy | DMCA | Add/correct tabs | Request tabs | Top 50 tabs