» » »

Saliva, Always Bass tabs (ver.2)

Artists:  A B C D E F G H I J K L M N O P Q R S T U V W X Y Z # 

Always Bass tabs (ver.2)

Saliva Tabs
 Rating:
3.8/5 (5 votes)
Always lessons Tabs too difficult? Try these video lessons and learn fast
                Saliva - Always

bass tab


5-stringed bass
G D A E B

   INTRO
G-|---------------------------------|
D-|---------------------------------|
A-|---------------------------------|
E-|-777777-666666-444444/7-77-799-9-|
B-|---------------------------------|
                                                                              

   CORO
G-|-------------------------|-----------|-------------------------|
D-|-------------------------|-----------|-------------------------|
A-|-------------------------|-----------|-------------------------|
E-|-------2-2-2-------4-4-4-|-----------|-------2-2-2-------------|
B-|-4-4-4-------2-2-2-------|-----------|-4-4-4-------2-2-2-0-0-0-|
                              variacion                                        
 
G-|---------------------|-----------|---------------------|
D-|---------------------|-----------|---------------------|
A-|---------------------|-----------|---------------------|
E-|------2222------7777-|-----------|------2222-----------|
B-|-4444------2222------|-----------|-4444------2222-0000-|
                          variacion                                            

   VRESO
G-|----------------------|
D-|----------------------|
A-|----------------------|
E-|------2---------/7----|
B-|-4---------2----------|
                                                                              

   MIDDLE
G-|-------------------|------------------|---|----------------------|
D-|-------------------|------------------|---|----------------------|
A-|-------------------|------------------|---|----------------------|
E-|-44444444-22222222-|------------------|---|-444444-777777-999999-|
B-|-------------------|-2/4-44-2/4-44-55-|---|----------------------|
                              x2           +                                   

Les mando congratulaciones a todos los que pertenecian a la seccion de percusion
de la banda del Instituto Americano del año 2005, taras eran los jefes a lo
menos El Jorge Salas que puras tareses era.

doky2007
            
Submit corrections

comments powered by Disqus
↑ Back to top | Saliva Bass for Always. Lyrics for acoustic guitar and electric guitar. Tablatures and chords are parodies/interpretations of the original songs. You may use it for private study, scholarship, research or language learning purposes only