» » »

My Life Tabs (ver.1)

Artists:  A B C D E F G H I J K L M N O P Q R S T U V W X Y Z # 

My Life Tabs (ver.1)

Saigon Kick
Rating:
4/5 (1 vote)

Hard to play? Try these video lessons and learn fast.
                #------------------------------------------------------------------------------##

Here's a little ditty I transcribed that someone out there MIGHT have heard.

*****  ATTACHMENT: saigon.tab *****


	This is off Saigon Kick's self-titled debut album.  It's kind
	of a happy-go-lucky song of despair.  It's also one of the
	rare rock and roll songs where you can use your talent on
	the kazoo!  If you have the second album, Lizard, be sure
	to get the first one - it's much better.



 by Saigon Kick

				   (Riff 1 begin)
 ---------------------------------|----------------------------------|
 ---------------------------------|----------------------------------|
 ---------------------------------|----------------------------------|
 ----2---2---2---2-----2---2---2--|---2---2---2-----2---2---2---2----|
 --3---3---3---3---2H3---3---3----|2H3--3---3---2H3---3---3---3------|
 ---------------------------------|----------------------------------|
				    Father...     And even if...
				    Mother...     And even if...

	       (Repeat to Riff 1 begin)
 -------------------------------------------------------------------------|
 --------------------------------------|----------------------------------|
 --------------------------------------|----------------------------------|
 ----0---0-------------2---2---2---2---|----0---0-----------2---2---2---2-|
 --1---1-----0---0---3---3---3---3-----|--1---1-----0---0-3---3---3---3---|
 ----------1---1----------------------------------1---1-------------------|
 I Find him so...
 She was the one...                      She was the one...


 __________________________________________________________________________

Verse (Use Riff above)
-----

 Father says he is the only one
 And even if he is the only one
 I find him so confusing still today

 Mother says she is the only one
 And even if she is the only one
 She was the one I needed her today
 She was the one I needed her today

Bridge:
-------
 Dm           Dm    F        F
   You know I never tried to hurt you

 -------------------------------------------------|
 -------------------------------------------------|
 -------------------------------------------------|
 ---2--------2------2---------2-------2------2----|
 3--------3------3---------3--------3------3------|
 -------------------------------------------------|
  I never tried you know I really never tried


 Dm          Dm     F      F
   Somehow I find I really need you

   G
   I'll never, ever, ever leave you

   G
   You never ever will believe me

Chorus:
-------

   C    C      F      F          G   G
   Even if you walked across the skies

	F       G     C
   I'll be with you tonight

	C      F      F        G   G
   Even if you told a thousand lies

       F     G
   I'd still believe you

  C     C              F     F        G   G
   All alone along the sea I dream of you

	      F        G         C
   You know I need you here with me

       C         F         F
   The emptiness inside my heart

   G
   Your an angel well within my

   G                             (Return to Riff 1)
   Your and angel weel within my sight

Verse
-----

   Sister says she was the only one
   And even if she was the only one
   My life was just completed yesterday

   Darling say that you're the only one
   And if you say that you're the only one
   My life was just completed here today
   My life was just completed here today

Bridge.
Chorus.

***** Kazoo Solo ***** (You can figure this one out.)

Bridge.
Chorus.

            
Hard to play? Try these video lessons and learn fast. | Correct




comments powered by Disqus
↑ Back to top | Tablatures and chords are parodies/interpretations of the original songs. You may use it for private study, scholarship, research or language learning purposes only