>
 >
My Life

My Life Bass Tabs

Saigon Kick - My Life chords, tabs, tablatures, lyrics

Guitar lessons | Add/correct | Request | Top 50 tabs Artists:  A B C D E F G H I J K L M N O P Q R S T U V W X Y Z 0-9

My Life Bass Tabs – Saigon Kick

CD, Sheet music, Poster

Do you like My Life? Share with your friends now
Bass TabsTabsTabs v2
-----------------------------------------------------------------------------
                       
-----------------------------------------------------------------------------

Tuning: Standard

=============================================================================

                                    

Bass



     Q    Q    Q    Q       Q    Q    Q    Q       Q    Q    Q    Q     
G||----------------------|----------------------|----------------------|
D||----------------------|----------------------|----------------------|
A||--3----3----3----3----|--3----3----3----3----|--3----3----3----3----|
E||----------------------|----------------------|----------------------|


  Q    Q    Q    Q       Q    Q    Q    Q       Q    Q    Q    Q     
----------------------|----------------------|----------------------|
----------------------|----------------------|----------------------|
--3----3----3----3----|--3----3----3----3----|--3----3----3----3----|
----------------------|----------------------|----------------------|


  Q    Q    Q    Q       Q    Q    Q    Q       Q    Q    Q    Q     
----------------------|----------------------|----------------------|
----------------------|----------------------|----------------------|
--3----3----3----3----|--3----3----3----3----|--1----1----1----1----|
----------------------|----------------------|----------------------|


  Q    Q    Q    Q       Q    Q    Q    Q       Q    Q    Q    Q     
----------------------|----------------------|----------------------|
----------------------|----------------------|----------------------|
----------------------|--3----3----3----3----|--3----3----3----3----|
--1----1----1----1----|----------------------|----------------------|


  Q    Q    Q    Q       Q    Q    Q    Q       Q    Q    Q    Q     
----------------------|----------------------|----------------------|
----------------------|----------------------|----------------------|
--3----3----3----3----|--3----3----3----3----|--3----3----3----3----|
----------------------|----------------------|----------------------|


  Q    Q    Q    Q       Q    Q    Q    Q       Q    Q    Q    Q     
----------------------|----------------------|----------------------|
----------------------|----------------------|----------------------|
--3----3----3----3----|--1----1----1----1----|----------------------|
----------------------|----------------------|--1----1----1----1----|


  Q    Q    Q    Q       Q    Q    Q    Q       Q    Q    Q    Q     
----------------------|----------------------|----------------------|
----------------------|----------------------|----------------------|
--3----3----3----3----|--3----3----3----3----|--1----1----1----1----|
----------------------|----------------------|----------------------|


  Q    Q    Q    Q       Q    Q    Q    Q       Q    Q    Q    Q     
----------------------|----------------------|----------------------|
----------------------|----------------------|----------------------|
----------------------|--3----3----3----3----|--3----3----3----3----|
--1----1----1----1----|----------------------|----------------------|


  W                   W                   Q    Q    Q    Q     
-------------------|-------------------|----------------------|
-------------------|-------------------|----------------------|
--5----------------|--1----------------|--3----3----3----3----|
-------------------|-------------------|----------------------|


  Q    Q    Q    Q       W                   W                 
----------------------|-------------------|-------------------|
----------------------|-------------------|-------------------|
--3----3----3----3----|--5----------------|--1----------------|
----------------------|-------------------|-------------------|


  Q    Q    Q    Q       Q    Q    Q    Q       Q    Q    Q    Q     
----------------------|----------------------|----------------------|
----------------------|----------------------|----------------------|
----------------------|----------------------|----------------------|
--3----3----3----3----|--3----3----3----3----|--3----3----3----3----|


  Q    Q    Q    Q       H        H           H        H         
----------------------|-----------5--------|--------------------|
----------------------|--------------------|-----------3--------|
----------------------|--3-----------------|--------------------|
--3----3----3----3----|--------------------|--1-----------------|


  H        H           Q    Q    Q    Q       H        H         
--------------------|----------------------|-----------5--------|
-----------5--------|-------3----5---------|--------------------|
--------------------|----------------------|--3-----------------|
--3-----------------|--1--------------3----|--------------------|


  H        H           H        H           Q    Q    Q    Q     
--------------------|--------------------|----------------------|
-----------3--------|-----------5--------|-------3----5---------|
--------------------|--------------------|----------------------|
--1-----------------|--3-----------------|--1--------------3----|


  H        H           H        H           H        H         
-----------5--------|--------------------|--------------------|
--------------------|-----------3--------|-----------5--------|
--3-----------------|--------------------|--------------------|
--------------------|--1-----------------|--3-----------------|


  Q    Q    Q    Q       H        H           H        H         
----------------------|-----------5--------|--------------------|
-------3----5---------|--------------------|-----------3--------|
----------------------|--3-----------------|--------------------|
--1--------------3----|--------------------|--1-----------------|


  Q    Q    Q    Q       Q    Q    Q    Q       Q    Q    Q    Q     
----------------------|----------------------|----------------------|
----------------------|----------------------|----------------------|
----------------------|----------------------|----------------------|
--3----3----3----3----|--3----3----3----3----|--3----3----3----3----|


  Q    Q    Q    Q       Q    Q    Q    Q       Q    Q    Q    Q     
----------------------|----------------------|----------------------|
----------------------|----------------------|----------------------|
----------------------|--3----3----3----3----|--3----3----3----3----|
--3----3----3----3----|----------------------|----------------------|


  Q    Q    Q    Q       Q    Q    Q    Q       Q    Q    Q    Q     
----------------------|----------------------|----------------------|
----------------------|----------------------|----------------------|
--3----3----3----3----|--3----3----3----3----|--1----1----1----1----|
----------------------|----------------------|----------------------|


  Q    Q    Q    Q       Q    Q    Q    Q       Q    Q    Q    Q     
----------------------|----------------------|----------------------|
----------------------|----------------------|----------------------|
----------------------|--3----3----3----3----|--3----3----3----3----|
--1----1----1----1----|----------------------|----------------------|


  Q    Q    Q    Q       Q    Q    Q    Q       Q    Q    Q    Q     
----------------------|----------------------|----------------------|
----------------------|----------------------|----------------------|
--3----3----3----3----|--3----3----3----3----|--3----3----3----3----|
----------------------|----------------------|----------------------|


  Q    Q    Q    Q       Q    Q    Q    Q       Q    Q    Q    Q     
----------------------|----------------------|----------------------|
----------------------|----------------------|----------------------|
--3----3----3----3----|--1----1----1----1----|----------------------|
----------------------|----------------------|--1----1----1----1----|


  Q    Q    Q    Q       Q    Q    Q    Q       Q    Q    Q    Q     
----------------------|----------------------|----------------------|
----------------------|----------------------|----------------------|
--3----3----3----3----|--3----3----3----3----|--1----1----1----1----|
----------------------|----------------------|----------------------|


  Q    Q    Q    Q       Q    Q    Q    Q       Q    Q    Q    Q     
----------------------|----------------------|----------------------|
----------------------|----------------------|----------------------|
----------------------|--3----3----3----3----|--3----3----3----3----|
--1----1----1----1----|----------------------|----------------------|


  W                   W                   Q    Q    Q    Q     
-------------------|-------------------|----------------------|
-------------------|-------------------|----------------------|
--5----------------|--1----------------|--3----3----3----3----|
-------------------|-------------------|----------------------|


  Q    Q    Q    Q       W                   W                 
----------------------|-------------------|-------------------|
----------------------|-------------------|-------------------|
--3----3----3----3----|--5----------------|--1----------------|
----------------------|-------------------|-------------------|


  Q    Q    Q    Q       Q    Q    Q    Q       Q    Q    Q    Q     
----------------------|----------------------|----------------------|
----------------------|----------------------|----------------------|
----------------------|----------------------|----------------------|
--3----3----3----3----|--3----3----3----3----|--3----3----3----3----|


  Q    Q    Q    Q       H        H           H        H         
----------------------|-----------5--------|--------------------|
----------------------|--------------------|-----------3--------|
----------------------|--3-----------------|--------------------|
--3----3----3----3----|--------------------|--1-----------------|


  H        H           Q    Q    Q    Q       H        H         
--------------------|----------------------|-----------5--------|
-----------5--------|-------3----5---------|--------------------|
--------------------|----------------------|--3-----------------|
--3-----------------|--1--------------3----|--------------------|


  H        H           H        H           Q    Q    Q    Q     
--------------------|--------------------|----------------------|
-----------3--------|-----------5--------|-------3----5---------|
--------------------|--------------------|----------------------|
--1-----------------|--3-----------------|--1--------------3----|


  H        H           H        H           H        H         
-----------5--------|--------------------|--------------------|
--------------------|-----------3--------|-----------5--------|
--3-----------------|--------------------|--------------------|
--------------------|--1-----------------|--3-----------------|


  Q    Q    Q    Q       H        H           H        H         
----------------------|-----------5--------|--------------------|
-------3----5---------|--------------------|-----------3--------|
----------------------|--3-----------------|--------------------|
--1--------------3----|--------------------|--1-----------------|


  Q    Q    Q    Q       Q    Q    Q    Q       Q    Q    Q    Q     
----------------------|----------------------|----------------------|
----------------------|----------------------|----------------------|
----------------------|----------------------|----------------------|
--3----3----3----3----|--3----3----3----3----|--3----3----3----3----|


  Q    Q    Q    Q       Q    Q    Q    Q       Q    Q    Q    Q     
----------------------|----------------------|----------------------|
----------------------|----------------------|----------------------|
----------------------|--3----3----3----3----|--3----3----3----3----|
--3----3----3----3----|----------------------|----------------------|


  Q    Q    Q    Q       Q    Q    Q    Q       Q    Q    Q    Q     
----------------------|----------------------|----------------------|
----------------------|----------------------|----------------------|
--3----3----3----3----|--3----3----3----3----|--1----1----1----1----|
----------------------|----------------------|----------------------|


  Q    Q    Q    Q       Q    Q    Q    Q       Q    Q    Q    Q     
----------------------|----------------------|----------------------|
----------------------|----------------------|----------------------|
----------------------|--3----3----3----3----|--3----3----3----3----|
--1----1----1----1----|----------------------|----------------------|


  Q    Q    Q    Q       Q    Q    Q    Q       Q    Q    Q    Q     
----------------------|----------------------|----------------------|
----------------------|----------------------|----------------------|
--3----3----3----3----|--3----3----3----3----|--3----3----3----3----|
----------------------|----------------------|----------------------|


  Q    Q    Q    Q       Q    Q    Q    Q       Q    Q    Q    Q     
----------------------|----------------------|----------------------|
----------------------|----------------------|----------------------|
--3----3----3----3----|--1----1----1----1----|----------------------|
----------------------|----------------------|--1----1----1----1----|


  Q    Q    Q    Q       Q    Q    Q    Q       Q    Q    Q    Q     
----------------------|----------------------|----------------------|
----------------------|----------------------|----------------------|
--3----3----3----3----|--3----3----3----3----|--1----1----1----1----|
----------------------|----------------------|----------------------|


  Q    Q    Q    Q       Q    Q    Q    Q       Q    Q    Q    Q     
----------------------|----------------------|----------------------|
----------------------|----------------------|----------------------|
----------------------|--3----3----3----3----|--3----3----3----3----|
--1----1----1----1----|----------------------|----------------------|


  W                   W                   Q    Q    Q    Q     
-------------------|-------------------|----------------------|
-------------------|-------------------|----------------------|
--5----------------|--1----------------|--3----3----3----3----|
-------------------|-------------------|----------------------|


  Q    Q    Q    Q       W                   W                 
----------------------|-------------------|-------------------|
----------------------|-------------------|-------------------|
--3----3----3----3----|--5----------------|--1----------------|
----------------------|-------------------|-------------------|


  Q    Q    Q    Q       Q    Q    Q    Q       Q    Q    Q    Q     
----------------------|----------------------|----------------------|
----------------------|----------------------|----------------------|
----------------------|----------------------|----------------------|
--3----3----3----3----|--3----3----3----3----|--3----3----3----3----|


  Q    Q    Q    Q       H        H           H        H         
----------------------|-----------5--------|--------------------|
----------------------|--------------------|-----------3--------|
----------------------|--3-----------------|--------------------|
--3----3----3----3----|--------------------|--1-----------------|


  H        H           Q    Q    Q    Q       H        H         
--------------------|----------------------|-----------5--------|
-----------5--------|-------3----5---------|--------------------|
--------------------|----------------------|--3-----------------|
--3-----------------|--1--------------3----|--------------------|


  H        H           H        H           Q    Q    Q    Q     
--------------------|--------------------|----------------------|
-----------3--------|-----------5--------|-------3----5---------|
--------------------|--------------------|----------------------|
--1-----------------|--3-----------------|--1--------------3----|


  H        H           H        H           H        H         
-----------5--------|--------------------|--------------------|
--------------------|-----------3--------|-----------5--------|
--3-----------------|--------------------|--------------------|
--------------------|--1-----------------|--3-----------------|


  Q    Q    Q    Q       H        H           H        H         
----------------------|-----------5--------|--------------------|
-------3----5---------|--------------------|-----------3--------|
----------------------|--3-----------------|--------------------|
--1--------------3----|--------------------|--1-----------------|


  H        H           Q    Q    Q    Q       H        H         
--------------------|----------------------|-----------5--------|
-----------5--------|-------3----5---------|--------------------|
--------------------|----------------------|--3-----------------|
--3-----------------|--1--------------3----|--------------------|


  H        H           H        H           Q    Q    Q    Q     
--------------------|--------------------|----------------------|
-----------3--------|-----------5--------|-------3----5---------|
--------------------|--------------------|----------------------|
--1-----------------|--3-----------------|--1--------------3----|


  H        H           H        H           H        H         
-----------5--------|--------------------|--------------------|
--------------------|-----------3--------|-----------5--------|
--3-----------------|--------------------|--------------------|
--------------------|--1-----------------|--3-----------------|


  Q    Q    Q    Q       H        H           H        H         
----------------------|-----------5--------|--------------------|
-------3----5---------|--------------------|-----------3--------|
----------------------|--3-----------------|--------------------|
--1--------------3----|--------------------|--1-----------------|


  H        H           Q    Q    Q    Q       H        H         
--------------------|----------------------|-----------5--------|
-----------5--------|-------3----5---------|--------------------|
--------------------|----------------------|--3-----------------|
--3-----------------|--1--------------3----|--------------------|


  H        H           H        H           Q    Q    Q    Q       H         
--------------------|--------------------|----------------------|-----------|
-----------3--------|-----------5--------|-------3----5---------|-----------|
--------------------|--------------------|----------------------|--3--------|
--1-----------------|--3-----------------|--1--------------3----|-----------|


-----------|-------||
-----------|-------||
-----------|-------||
-----------|-------||




Duration Legend
---------------
W - whole
H - half
Q - quarter
E - 8th
S - 16th
T - 32nd
X - 64th
. - note dotted
|-n-|  - n-tuplets


Tablature Legend
----------------
L - tied note
x - dead note
g - grace note
(n) - ghost note
> - accentuded note
NH - natural harmonic
AH - artificial harmonic
TH - tapped harmonic
SH - semi harmonic
PH - pitch harmonic
h - hammer on
p - pull off
b - bend
br - bendRelease
pb - preBend
pbr - preBendRelease
brb - bendReleaseBend
\n/ - tremolo bar dip
\n - tremolo bar dive
-/n - tremolo bar Release up
/n\ - tremolo bar inverted dip
/n - tremolo bar return
-\n - tremolo bar Release down
S - shift slide
s - legato slide
/ -  slide into from below or out of upwards
\ -  slide into from above or out of downwards
~ - vibrato
W - wide vibrato
tr - trill
TP - tremolo picking
T - tapping
S - slap
P - pop
< - fade in
^ - brush up
v - brush down





Comments


Popular Saigon Kick tabs & chords
Body Bags Bass Tabs
I Love You Bass Tabs
My Dog Bass Tabs
What Do You Do Bass Tabs
All Alright Tabs
Cruelty Tabs
I Love You Tabs
I Love You 1 Tabs
What Do You Do Tabs
All Alright Ukulele


Song lyrics



↑ Back to top | Tablatures and chords are parodies/interpretations of the original songs. You may use it for private study, scholarship, research or language learning purposes only
© 2014 AZChords.com Contact us | Privacy policy | DMCA | Add/correct tabs | Request tabs | Top 50 tabs