>
 >
Come Take Me Now

Come Take Me Now Guitar Tabs

Saigon Kick - Come Take Me Now chords, tabs, tablatures, lyrics

Guitar lessons | Add/correct | Request | Top 50 tabs Artists:  A B C D E F G H I J K L M N O P Q R S T U V W X Y Z 0-9

Come Take Me Now Guitar Tabs – Saigon Kick

CD, Sheet music, Poster

Do you like Come Take Me Now? Share with your friends now
Bass TabsTabs
-----------------------------------------------------------------------------
                 Chanel - Saigon Kick (GUITAR)

-----------------------------------------------------------------------------

Tuning: Standard

=============================================================================




Guitar Clean



     S E  S S S S S S E  S S S S S    S E  S S S S S S E  S S S S S
E||----2----2---2-----2----2---2---|----2----2---2-----0----0---0---|
B||----3----3---3-----3----3---3---|----3----3---3-----0----0---0---|
G||--4----4---4---4-3----3---3---3-|--2----2---2---2-1----1---1---1-|
D||--------------------------------|--------------------------------|
A||--------------------------------|--------------------------------|
E||--------------------------------|--------------------------------|


  S E  S E  S E.  E  S E.     W
----2--3-2--------2--3-2---|--2----------------|
----3--3-3--------3--3-3---|--2----------------|
--0---------0-0------------|--4----------------|
---------------------------|-------------------|
---------------------------|-------------------|
---------------------------|-------------------|


  S E  S S S S S S E  S S S S S    S E  S S S S S S E  S S S S S
----2----2---2-----2----2---2---|----2----2---2-----0----0---0---|
----3----3---3-----3----3---3---|----3----3---3-----0----0---0---|
--4----4---4---4-3----3---3---3-|--2----2---2---2-1----1---1---1-|
--------------------------------|--------------------------------|
--------------------------------|--------------------------------|
--------------------------------|--------------------------------|


  S E  S E  S E.  E  S E  S    W
----2--3-2--------2--3-2----|--2----------------|
----3--3-3--------3--3-3----|--2----------------|
--0---------0-0-----------0-|--4----------------|
----------------------------|-------------------|
----------------------------|-------------------|
----------------------------|-------------------|


  S E  S S S S S S E  S S S S S    S E  S S S S S S E  S S S S S
----2----2---2-----2----2---2---|----2----2---2-----0----0---0---|
----3----3---3-----3----3---3---|----3----3---3-----0----0---0---|
--4----4---4---4-3----3---3---3-|--2----2---2---2-1----1---1---1-|
--------------------------------|--------------------------------|
--------------------------------|--------------------------------|
--------------------------------|--------------------------------|


  S E  S E  S E.  E  S E  S    W
----2--3-2--------2--3-2----|--2----------------|
----3--3-3--------3--3-3----|--2----------------|
--0---------0-0-----------0-|--4----------------|
----------------------------|-------------------|
----------------------------|-------------------|
----------------------------|-------------------|


  S E  S S S S S S E  S S S S S    S E  S S S S S S E  S S S S S
----2----2---2-----2----2---2---|----2----2---2-----0----0---0---|
----3----3---3-----3----3---3---|----3----3---3-----0----0---0---|
--4----4---4---4-3----3---3---3-|--2----2---2---2-1----1---1---1-|
--------------------------------|--------------------------------|
--------------------------------|--------------------------------|
--------------------------------|--------------------------------|


  S E  S E  S E.  E  S E.     H.           S E.     W
----2--3-2--------2--3-2---|--2------------------|-------------------|
----3--3-3--------3--3-3---|--2------------------|-------------------|
--0---------0-0------------|--4------------4-6---|--7----------------|
---------------------------|---------------4-6---|--7----------------|
---------------------------|---------------2-4---|--5----------------|
---------------------------|---------------------|-------------------|


  H.           S E.     H.           E  E     W
---------------------|---------------------|-------------------|
---------------------|---------------------|-------------------|
--2------------------|--5------------L-----|-------------------|
--2------------------|--5------------L-----|--5----------------|
--0--------------2---|--3------------3--2--|--5----------------|
---------------------|---------------------|--3----------------|


  W                   H.           S E.     H.           E  E
-------------------|---------------------|---------------------|
-------------------|---------------------|---------------------|
--7----------------|--2------------------|--5------------------|
--7----------------|--2------------------|--5------------------|
--5----------------|--0--------------2---|--3---------------2--|
-------------------|---------------------|---------------------|


  W                   S E  S S S S S S E  S S S S S
-------------------|----2----2---2-----2----2---2---|
-------------------|----3----3---3-----3----3---3---|
-------------------|--4----4---4---4-3----3---3---3-|
--5----------------|--------------------------------|
--5----------------|--------------------------------|
--3----------------|--------------------------------|


  S E  S S S S S S E  S S S S S    S E  S E  S E.  E  S E  S
----2----2---2-----0----0---0---|----2--3-2--------2--3-2----|
----3----3---3-----0----0---0---|----3--3-3--------3--3-3----|
--2----2---2---2-1----1---1---1-|--0---------0-0-----------0-|
--------------------------------|----------------------------|
--------------------------------|----------------------------|
--------------------------------|----------------------------|


  W                   S E  S S S S S S E  S S S S S
--2----------------|----2----2---2-----2----2---2---|
--2----------------|----3----3---3-----3----3---3---|
--4----------------|--4----4---4---4-3----3---3---3-|
-------------------|--------------------------------|
-------------------|--------------------------------|
-------------------|--------------------------------|


  S E  S S S S S S E  S S S S S    S E  S E  S E.  E  S E  S
----2----2---2-----0----0---0---|----2--3-2--------2--3-2----|
----3----3---3-----0----0---0---|----3--3-3--------3--3-3----|
--2----2---2---2-1----1---1---1-|--0---------0-0-----------0-|
--------------------------------|----------------------------|
--------------------------------|----------------------------|
--------------------------------|----------------------------|


  H.           S E.     W                   H.           S E.
--2------------------|-------------------|---------------------|
--2------------------|-------------------|---------------------|
--4------------4-6---|--7----------------|--2------------------|
---------------4-6---|--7----------------|--2------------------|
---------------2-4---|--5----------------|--0--------------2---|
---------------------|-------------------|---------------------|


  H.           E  E     W                   W
---------------------|-------------------|-------------------|
---------------------|-------------------|-------------------|
--5------------L-----|-------------------|--7----------------|
--5------------L-----|--5----------------|--7----------------|
--3------------3--2--|--5----------------|--5----------------|
---------------------|--3----------------|-------------------|


  H.           S E.     H.           E  E     W
---------------------|---------------------|-------------------|
---------------------|---------------------|-------------------|
--2------------------|--5------------------|-------------------|
--2------------------|--5------------------|--5----------------|
--0--------------2---|--3---------------2--|--5----------------|
---------------------|---------------------|--3----------------|


  S E  S S S S S S E  S S S S S    S E  S S S S S S E  S S S S S
----2----2---2-----2----2---2---|----2----2---2-----0----0---0---|
----3----3---3-----3----3---3---|----3----3---3-----0----0---0---|
--4----4---4---4-3----3---3---3-|--2----2---2---2-1----1---1---1-|
--------------------------------|--------------------------------|
--------------------------------|--------------------------------|
--------------------------------|--------------------------------|


  S E  S E  S E.  E  S E  S    W
----2--3-2--------2--3-2----|--2----------------|
----3--3-3--------3--3-3----|--2----------------|
--0---------0-0-----------0-|--4----------------|
----------------------------|-------------------|
----------------------------|-------------------|
----------------------------|-------------------|


  S E  S S S S S S E  S S S S S    S E  S S S S S S E  S S S S S
----2----2---2-----2----2---2---|----2----2---2-----0----0---0---|
----3----3---3-----3----3---3---|----3----3---3-----0----0---0---|
--4----4---4---4-3----3---3---3-|--2----2---2---2-1----1---1---1-|
--------------------------------|--------------------------------|
--------------------------------|--------------------------------|
--------------------------------|--------------------------------|


  S E  S E  S E.  E  S E  S    H.           S E.     W
----2--3-2--------2--3-2----|--2------------------|-------------------|
----3--3-3--------3--3-3----|--2------------------|-------------------|
--0---------0-0-----------0-|--4------------4-6---|--7----------------|
----------------------------|---------------4-6---|--7----------------|
----------------------------|---------------2-4---|--5----------------|
----------------------------|---------------------|-------------------|


  H.           S E.     H.           E  E     W
---------------------|---------------------|-------------------|
---------------------|---------------------|-------------------|
--2------------------|--5------------L-----|-------------------|
--2------------------|--5------------L-----|--5----------------|
--0--------------2---|--3------------3--2--|--5----------------|
---------------------|---------------------|--3----------------|


  W                   H.           S E.     H.           E  E
-------------------|---------------------|---------------------|
-------------------|---------------------|---------------------|
--7----------------|--2------------------|--5------------------|
--7----------------|--2------------------|--5------------------|
--5----------------|--0--------------2---|--3---------------2--|
-------------------|---------------------|---------------------|


  W                   W                   H.           S E.
-------------------|-------------------|---------------------|
-------------------|-------------------|---------------------|
-------------------|--8----------------|--3------------------|
--5----------------|--8----------------|--3------------------|
--5----------------|--6----------------|--1--------------3---|
--3----------------|-------------------|---------------------|


  H.           E  E     W                   W
---------------------|-------------------|-------------------|
---------------------|-------------------|-------------------|
--6------------L-----|-------------------|--8----------------|
--6------------L-----|--6----------------|--8----------------|
--4------------L--3--|--6----------------|--6----------------|
---------------------|--4----------------|-------------------|


  H.           S E.     H.           E  E     W
---------------------|---------------------|-------------------|
---------------------|---------------------|-------------------|
--3------------------|--6------------L-----|-------------------|
--3------------------|--6------------L-----|--6----------------|
--1--------------3---|--4------------L--3--|--6----------------|
---------------------|---------------------|--4----------------|


  W                   H.           S E.
-------------------|---------------------||
-------------------|---------------------||
--8----------------|--3------------------||
--8----------------|--3------------------||
--6----------------|--1--------------3---||
-------------------|---------------------||


-----------------------------------------------------------|
-----------------------------------------------------------|
-----------------------------------------------------------|

Guitar solo


-------|----------------------------------|---------------------------|
-------|----------------------------------|------------------------7--|
-------|--------------<>9br--7--9--<>9b-7-|--L--------<>9br--7--9-----|
-------|--9brb----------------------------|---------------------------|
-------|----------------------------------|---------------------------|
-------|----------------------------------|---------------------------|


                   PM PM PM PM
                                       |---3---|   |---3---|  |---3---|
  S  Q       S T.  X  X  X  X  X  E    T   T   T   T   T   T  T   T   T   S.  T
------------------------------12-14p--12h-14p-12p-10h-12p-10p-9h-10h-12s-14p-12--|p
--8p-7brb----L-------------10----------------------------------------------------|
------------------------11-------------------------------------------------------|
---------------------12----------------------------------------------------------|
------------------14-------------------------------------------------------------|
---------------------------------------------------------------------------------|


               PM PM PM PM
   H        S  T  T  T  T  E.   E      Q.      S S.  S  Q    S.  S
--10-------------------------------|-------------9h-10-------9h-10-|
-----------------------10-12---12--|--12~--------------12----------|
--------------------11-------------|-------------------------------|
-----------------12----------------|-------------------------------|
--------------14-------------------|-------------------------------|
-----------------------------------|-------------------------------|


     PH           PH
     Q.           S    S   E   Q      T  T  T  T
--<>12brb------<>12br-10h-12---L\----------14-17-|
----------------------------------------15-------|
-------------------------------------16----------|
-------------------------------------------------|
-------------------------------------------------|
-------------------------------------------------|


   E   X. X  X. X. X. X  X. X. X. X X.  X. X. X. X. X. X  X. X. X.E  T  T  T  T
---L--15-17-15-14-15-14-12-14-12-10-9--10-12-15-17-15-14-12-14-12-7----------14-|
--------------------------------------------------------------------------15----|
-----------------------------------------------------------------------16-------|
--------------------------------------------------------------------------------|
----------x-----------x-----------x--------------------x------------------------|
--------------------------------------------------------------------------------|


   Q.       E   H
-------------------------|----|-------|-------|-------|-------|-------|-------|
-------------------------|----|-------|-------|-------|-------|-------|-------|
-------------------------|----|-------|-------|-------|-------|-------|-------|
--16~-------L\-----------|----|-------|-------|-------|-------|-------|-------|
-------------------------|----|-------|-------|-------|-------|-------|-------|
-------------------------|----|-------|-------|-------|-------|-------|-------|






Duration Legend
---------------
W - whole
H - half
Q - quarter
E - 8th
S - 16th
T - 32nd
X - 64th
. - note dotted
|-n-|  - n-tuplets


Tablature Legend
----------------
L - tied note
x - dead note
g - grace note
(n) - ghost note
> - accentuded note
NH - natural harmonic
AH - artificial harmonic
TH - tapped harmonic
SH - semi harmonic
PH - pitch harmonic
h - hammer on
p - pull off
b - bend
br - bendRelease
pb - preBend
pbr - preBendRelease
brb - bendReleaseBend
\n/ - tremolo bar dip
\n - tremolo bar dive
-/n - tremolo bar Release up
/n\ - tremolo bar inverted dip
/n - tremolo bar return
-\n - tremolo bar Release down
S - shift slide
s - legato slide
/ -  slide into from below or out of upwards
\ -  slide into from above or out of downwards
~ - vibrato
W - wide vibrato
tr - trill
TP - tremolo picking
T - tapping
S - slap
P - pop
< - fade in
^ - brush up
v - brush down





Comments


Popular Saigon Kick tabs & chords
All Alright Chords
All I Want Chords
Fields Of Rape Chords
Fields Of Rape Tabs
God Of 42nd Street Tabs
Hostile Youth 1 Tabs
I Love You 1 Tabs
Love Is On The Way 1 Tabs
My Dog Tabs
My Life Tabs


Song lyrics



↑ Back to top | Tablatures and chords are parodies/interpretations of the original songs. You may use it for private study, scholarship, research or language learning purposes only
© 2014 AZChords.com Contact us | Privacy policy | DMCA | Add/correct tabs | Request tabs | Top 50 tabs