» » »

Safetysuit, Anywhere But Here Tabs (ver.2)

Artists:  A B C D E F G H I J K L M N O P Q R S T U V W X Y Z # 

Anywhere But Here Tabs (ver.2)

Safetysuit Tabs
 Rating:
4.2/5 (5 votes)
Anywhere But Here lessons Tabs too difficult? Try these video lessons and learn fast
                Electric Lead Tabs First
Acoustic Rhythm Chords Second


Electric Lead (Dave)
Intro
e|--------------------------|-----------------------------------|
B|--12---9--12---9----9-----|--12---9--12---9----10-9-----------|
G|----911-----911--11---11--|----911-----911--11----------------|
D|--------------------------|-----------------------------------|
A|--------------------------|-----------------------------------|
E|--------------------------|-----------------------------------|

e|--------------------------|-------------------12--------------|
B|--12---9--12---9----9-----|--12---9--12---9------10-9-10-12~--|
G|----911-----911--11---11--|----911-----911--11----------------|
D|--------------------------|-----------------------------------|
A|--------------------------|-----------------------------------|
E|--------------------------|-----------------------------------|

Verse 1                       harmonics
e|-----|-----|-----|---------|-<12>~-|-----|------|-----12----------|-----|
B|-----|-----|-----|----<12>-|-------|-----|------|--12----109-109~-|-----|
G|-----|-----|-----|---------|-------|-----|------|-----------------|-----|
D|-----|-----|-----|---------|-------|-----|------|-----------------|-----|
A|-----|-----|-----|---------|-------|-----|------|-----------------|-----|
E|-----|-----|-----|---------|-------|-----|------|-----------------|-----|

PreChorus
e|-----12---12---------12--12-|-----12----12----|
B|--12----12----10--10----9---|--910---910---9~-|
G|----------------------------|-----------------|
D|----------------------------|-----------------|
A|----------------------------|-----------------|
E|----------------------------|-----------------|

Chorus 1
e|--12-12-12-12-12-11-11-11-|-11s12-12-12-12-12-11-11-11-|
B|--------------------------|----------------------------|
G|---9--9--9--9--9--8--8--8-|--8-s9--9--9--9--9--8--8--8-|
D|--------------------------|----------------------------|
A|--------------------------|----------------------------|
E|--------------------------|----------------------------|

e|--------------------------|--------------------------|
B|---9--9--9--9--9--9--9--9-|-10-10-10-10-10-10-10-10--|
G|---9--9--9--9--9--9--9--9-|--9--9--9--9--9--9--9--9--|
D|--------------------------|--------------------------|
A|--------------------------|--------------------------|
E|--------------------------|--------------------------|

e|--12-12-12-12-12-11-11-11-|-11s12-12-12-12-12-11-11-11-|
B|--------------------------|----------------------------|
G|---9--9--9--9--9--8--8--8-|--8-s9--9--9--9--9--8--8--8-|
D|--------------------------|----------------------------|
A|--------------------------|----------------------------|
E|--------------------------|----------------------------|

e|--------------------------|---------------------|
B|---9--9--9--9--9--9--9--9-|-10-10-10-10---------|
G|---9--9--9--9--9--9--9--9-|--9--9--9--9--9s11~--|
D|--------------------------|---------------------|
A|--------------------------|---------------------|
E|--------------------------|---------------------|

Solo
e|------------------------------|-----------------------------|
B|---12-------12-----9----9-----|--12-------12-----9----10-9--|
G|-9-----9-11-----11---11---11--|------9-11-----11---11-------|
D|------------------------------|-----------------------------|
A|------------------------------|-----------------------------|
E|------------------------------|-----------------------------|

e|-----------------------------------|
B|--12-------12-----9----9h10-9------|
G|------9-11-----11---11--------9~\--|
D|-----------------------------------|
A|-----------------------------------|
E|-----------------------------------|

Verse 2
e|--------------------------|-----------------------------------|
B|--12---9--12---9----9-----|--12---9--12---9----10-9-----------|
G|----911-----911--11---11--|----911-----911--11----------------|
D|--------------------------|-----------------------------------|
A|--------------------------|-----------------------------------|
E|--------------------------|-----------------------------------|

e|--------------------------|-------------------12--------------|
B|--12---9--12---9----9-----|--12---9--12---9------10-9-10-12~--|
G|----911-----911--11---11--|----911-----911--11----------------|
D|--------------------------|-----------------------------------|
A|--------------------------|-----------------------------------|
E|--------------------------|-----------------------------------|

e|--------------------------|-----------------------------------|
B|--12---9--12---9----9-----|--12---9--12---9----10-9-----------|
G|----911-----911--11---11--|----911-----911--11----------------|
D|--------------------------|-----------------------------------|
A|--------------------------|-----------------------------------|
E|--------------------------|-----------------------------------|

e|--------------------------|-----------------------------------|
B|--12---9--12---9----9-----|--12---9--12---9-----10-9----------|
G|----911-----911--11---11--|----911-----911--11----------------|
D|--------------------------|-----------------------------------|
A|--------------------------|-----------------------------------|
E|--------------------------|-----------------------------------|

PreChorus
e|-----12---12---------12--12-|-----12----12----|
B|--12----12----10--10----9---|--910---910---9~-|
G|----------------------------|-----------------|
D|----------------------------|-----------------|
A|----------------------------|-----------------|
E|----------------------------|-----------------|

Chorus 2
e|--12-12-12-12-12-11-11-11-|-11s12-12-12-12-12-11-11-11-|
B|--------------------------|----------------------------|
G|---9--9--9--9--9--8--8--8-|--8-s9--9--9--9--9--8--8--8-|
D|--------------------------|----------------------------|
A|--------------------------|----------------------------|
E|--------------------------|----------------------------|

e|--------------------------|--------------------------|
B|---9--9--9--9--9--9--9--9-|-10-10-10-10-10-10-10-10--|
G|---9--9--9--9--9--9--9--9-|--9--9--9--9--9--9--9--9--|
D|--------------------------|--------------------------|
A|--------------------------|--------------------------|
E|--------------------------|--------------------------|

e|--12-12-12-12-12-11-11-11-|-11s12-12-12-12-12-11-11-11-|
B|--------------------------|----------------------------|
G|---9--9--9--9--9--8--8--8-|--8-s9--9--9--9--9--8--8--8-|
D|--------------------------|----------------------------|
A|--------------------------|----------------------------|
E|--------------------------|----------------------------|

e|--------------------------|-----------------------|
B|---9--9--9--9--9--9--9--9-|-10-10-10-10-----------|
G|---9--9--9--9--9--9--9--9-|--9--9--9--9-9-9s11~-9-|
D|--------------------------|-----------------------|
A|--------------------------|-----------------------|
E|--------------------------|-----------------------|

Solo 2
e|-----------------------------|-----------------------------|
B|--12-------12-----9----9-----|--12-------12-----9----10-9--|
G|------9-11-----11---11---11--|------9-11-----11---11-------|
D|-----------------------------|-----------------------------|
A|-----------------------------|-----------------------------|
E|-----------------------------|-----------------------------|

e|---------------------------------------------------------------|
B|--12-------12-----9----9h10-9----------12----------------------|
G|------9-11-----11---11--------9\--9-11----9---8-9-11-9-9-8-9---|
D|---------------------------------------------------------------|
A|---------------------------------------------------------------|
E|---------------------------------------------------------------|

e|---------------------------------------------------12----------|
B|--12-------12-----9----9-------12-------12-----9------10-9-10--|
G|------9-11-----11---11---11--------9-11-----11---11------------|
D|---------------------------------------------------------------|
A|---------------------------------------------------------------|
E|---------------------------------------------------------------|

e|-----------------------------------|
B|--12-------12-----9----9h10-9------|
G|------9-11-----11---11--------9~\--|
D|-----------------------------------|
A|-----------------------------------|
E|-----------------------------------|

Bridge
e|-----12---12---------12----12-|    |--12-12~--|
B|--12----12-----10--10----9----|    |--12~-----|
G|------------------------------|    |----------|
D|------------------------------| x3 |----------|
A|------------------------------|    |----------|
E|------------------------------|    |----------|

Solo 3
e|---------------------------------------------------------------|
B|--12-----------------------------------------------------------|
G|-----9-9-9-9-9-8s9-9s11-99-8s9-9s11-99-9s13s11-11-11s14s13-13--|
D|---------------------------------------------------------------|
A|---------------------------------------------------------------|
E|---------------------------------------------------------------|

e|--------------------------------------------------------------------|
B|--/121212------------/121212-----------/101010-9-10-9---------------|
G|----------111111-99----------111111-99------------------------------|
D|------------------------------------------------------11~--11s9-9~--|
A|--------------------------------------------------------------------|
E|--------------------------------------------------------------------|

Chorus 3
e|-----------------------------|-----------------------------|
B|--12-------12-----9----9-----|--12-------12-----9----10-9--|
G|------9-11-----11---11---11--|------9-11-----11---11-------|
D|-----------------------------|-----------------------------|
A|-----------------------------|-----------------------------|
E|-----------------------------|-----------------------------|

e|--------------------------------------------------------------|
B|--12-------12-----9----9h10-9----------12-----1212-1414-1717--|
G|------9-11-----11---11--------9\--9-11----8-9-----------------|
D|--------------------------------------------------------------|
A|--------------------------------------------------------------|
E|--------------------------------------------------------------|

e|--16-------16-----------------|     |-----|
B|--------19-------17----19-----|     |-----|
G|-----16-------16----16----16--|     |-17~-|
D|------------------------------| x3  |-----|
A|------------------------------|     |-----|
E|------------------------------|     |-----|

Outro
e|--16-------16-----------------|--16-------16-------------17-------------|
B|--------19-------17----19-----|--------19-------17----19----------------|
G|-----16-------16----16----16--|-----16-------16----16-------------------|
D|------------------------------|-----------------------------------------|
A|------------------------------|-----------------------------------------|
E|------------------------------|-----------------------------------------|

e|--16-------16-----------------|-----------------------------|
B|--------19-------17----19-----|-----------------------------|
G|-----16-------16----16----16--|-17~-------------------------|
D|------------------------------|-----------------------------|
A|------------------------------|-----------------------------|
E|------------------------------|-----------------------------|

e|--16-------16-----------------|--16-------16-------------17-------------|
B|--------19-------17----19-----|--------19-------17----19----------------|
G|-----16-------16----16----16--|-----16-------16----16-------------------|
D|------------------------------|-----------------------------------------|
A|------------------------------|-----------------------------------------|
E|------------------------------|-----------------------------------------|

e|--16-------16-------------------------|
B|--------19-------17----19--------17~--|  
G|-----16-------16----16----16s1414-----|
D|--------------------------------------|
A|--------------------------------------|
E|--------------------------------------|



Acoustic Chords and Lyrics(Doug)
Tuning DADGAD
Capo 2

If you want to use standard tuning you can change the chords, but this is how Doug plays it.

Relative to the Capo.
       D A D G A D
E5     x x 7 7 0 0
C#m7   x 2 4 4 0 0
Asus2  5 5 7 7 0 0
E/B    x 5 7 7 0 0
D#     x 4 7 6 0 0
E7sus  0 0 7 7 0 0
Emaj7  4 4 7 7 0 0

Intro E5 - C#m7 - Asus2 - E/B - D#

Verse 1
E5                        C#m7
Is this the end of the moment 
                       Asus2
or just a beautiful unfolding
                          E/B  D#
Of a love that will never be or maybe be
E5                                    C#m7
Everything that I never thought could happen
                 Asus2 
or ever come to pass and I wonder
   E/B    D#
If maybe, maybe I could 

PreChorus
C#m7            Asus2
be all you ever dreamed, cause you are

Chorus 1
E7sus            C#m7
Beautiful inside, so lovely and I
Emaj7               Asus2
cant see why I'd do anything without you, you are
E7sus                     C#m7
And when I'm not with you, I know that it's true
Emaj7               Asus2
That I'd rather be anywhere but here without you

Solo 1 E7sus - C#m7 - Emaj7 - Asus2

Verse 2
E5                    C#7
Is this a natural feeling
                      Asus2 
or is it just me bleeding
                                E/B              D#   
All my thoughts and dreams in hope that you will be with me or
E5                    C#7
Is this a moment to remember
                        Asus2
or just a cold day in December, I wonder
    E/B    D#
If maybe, maybe I could 

PreChorus
C#m7            Asus2
be all you ever dreamed, cause you are

Chorus 2
E7sus            C#m7
Beautiful inside, so lovely and I
Emaj7               Asus2
cant see why I'd do anything without you, you are
E7sus                     C#m7
And when I'm not with you, I know that it's true
Emaj7               Asus2
That I'd rather be anywhere but here without you

Solo 2 E7sus - C#m7 - Emaj7 - Asus2 x2

Bridge
E7sus            
Is this the end of the moment 
                      
or just a beautiful unfolding of a love that will never be 

for you and me

Solo 3 E7sus - C#m7 - Emaj7 - Asus2

Chorus 3
Cause you are
E7sus                  C#m7
You're beautiful inside, so lovely and I
Emaj7               Asus2
cant see why I'd do anything without you, you are
E7sus                     C#m7
And when I'm not with you, I know that it's true
Emaj7               Asus2
That I'd rather be anywhere but here without you

Outro (Oh whoa part)
E7sus - C#m7 - Emaj7 - Asus2 x2
            
Submit corrections

comments powered by Disqus
↑ Back to top | Safetysuit Tabs for Anywhere But Here. Lyrics for acoustic guitar and electric guitar. Tablatures and chords are parodies/interpretations of the original songs. You may use it for private study, scholarship, research or language learning purposes only