» » »

Safetysuit, Anywhere But Here Bass tabs (ver.1)

Artists:  A B C D E F G H I J K L M N O P Q R S T U V W X Y Z # 

Anywhere But Here Bass tabs (ver.1)

Safetysuit Tabs
 Rating:
4/5 (4 votes)
Anywhere But Here lessons Tabs too difficult? Try these video lessons and learn fast
1
                This is not 100% correct. J (bass player from SafetySuit) plays with a 5 string bass, 
and this tab is for a 4 string. This was modeled off of a live show they played, and it 
works for the song.

Standard Tuning

Intro (rest)

Verse 1 (rest)

PreChorus 0:40

G|------|------|
D|------|------|
A|-4~---|-0~---|
E|------|------|

Chorus

G|------------|------------|------------|------------|
D|------------|------------|------------|------------|
A|------------|-4-4~--4-4~-|------------|-0-0~--0-0~-| x2
E|-0-0~--0-0~-|------------|-4-4~--4-4~-|------------|

Solo 1

G|--------------|-------------|----------------|-----|
D|--------------|-------------|----------------|-----|
A|--------------|-4-4~--4-4~--|----------------|-0~--|
E|-0-0~---0-0~--|-------------|-4-4~--24-2-4-4-|-----|

Verse 2

G|-------------|-------------|-------------|----------------|
D|-------------|-------------|-------------|-2-2~--1-1~---1-|
A|-------------|-4-4~---4-4~-|-0-0~---0-0~-|-------------2--|
E|-0-0~---0-0~-|-------------|-------------|----------------|

G|-------------|----------------|-------------|------------|
D|-------------|----------------|-------------|-2-2~--1-1~-|
A|-------------|-4-404--4~-6-7\-|-0-0~---0-0~-|------------|
E|-0-0~---0-0~-|----------------|-------------|------------|

PreChorus

G|----------------|---------------|
D|--------------2-|---------------|
A|-4-4~---4-4-6---|-0-0~---000000-|
E|----------------|---------------|

Chorus 2

G|------------|------------|------------|------------|
D|------------|------------|------------|------------|
A|------------|-4-4~--4-4~-|------------|-0-0~--0-0~-| x2
E|-0-0~--0-0~-|------------|-4-4~--4-4~-|------------|

Solo 2


G|------------|------------|------------|------------------|
D|------------|------------|------------|------------------|
A|------------|-4-4~--4-4~-|------------|-0~--00-0~-00-0-0-|
E|-0-0~--0-0~-|------------|-4-4~--4-4~-|------------------|


G|------------|------------|----------------|-----|
D|------------|------------|----------------|-----|
A|------------|-4-4~--4-4~-|----------------|-0~--|
E|-0-0~--0-0~-|------------|-4-4~--24-2-4-4-|-----|

Bridge

G|-----|-------|-------|-------|
D|-----|-------|-------|-------|
A|-----|-------|-------|-------|
E|-0~--|-(0~)--|-(0~)--|-(0~)--|

Solo 3

G|------------|------------|------------|----------------|
D|------------|------------|------------|----------------|
A|------------|-4-4~--4-4~-|------------|-0-0~--0-000000-|
E|-0-0~--0-0~-|------------|-4-4~--4-4~-|----------------|

Chorus 3

G|------------|------------|------------|----------------|
D|------------|------------|------------|----------------|
A|------------|-4-4~--4-4~-|------------|-0-0~--0-00-----|
E|-0-0~--0-0~-|------------|-4-4~--4-4~-|-----------4422-|

G|------------|------------|------------|-----------------|
D|------------|------------|------------|-----------------|
A|------------|-4-4~--4-4~-|------------|-0-0~--0-00~-00~-|
E|-0-0~--0-0~-|------------|-4-4~--4-4~-|-----------------|

Outro

G|------------|------------|----------------|---------------|
D|------------|------------|----------------|---------------|
A|------------|-4-4~--4-4~-|----------------|-0-0-0-0-0-000-|
E|-0-0~--0-0~-|------------|-4-4-4-4-4-4-4-4|---------------|


G|------------|------------|----------------|----|
D|------------|------------|----------------|----|
A|------------|-4-4~--4-4~-|----------------|-0~-|
E|-0-0~--0-0~-|------------|-4-4-4-4-4-4-4-4|----|

Have fun with it! Let me know what you think!
            
Submit corrections

comments powered by Disqus
↑ Back to top | Safetysuit Bass for Anywhere But Here. Lyrics for acoustic guitar and electric guitar. 1 Tablatures and chords are parodies/interpretations of the original songs. You may use it for private study, scholarship, research or language learning purposes only