>
 >
Anywhere But Here

Anywhere But Here Guitar Tabs

Safetysuit - Anywhere But Here chords, tabs, tablatures, lyrics

Guitar lessons | Add/correct | Request | Top 50 tabs Artists:  A B C D E F G H I J K L M N O P Q R S T U V W X Y Z 0-9

Anywhere But Here Guitar Tabs – Safetysuit

CD, Sheet music, Poster

Do you like Anywhere But Here? Share with your friends now
Bass TabsChordsChords v2Chords v3TabsTabs v2Ukulele
SafetySuit - Anywhere But Here
Universal Motown Records


Standard tuning


Intro: E - C#m - A - E

e|--------------------------|-----------------------------------|
B|--12---9--12---9----9-----|--12---9--12---9----10-9-----------|
G|----911-----911--11---11--|----911-----911--11----------------|
D|--------------------------|-----------------------------------|
A|--------------------------|-----------------------------------|
E|--------------------------|-----------------------------------|

e|--------------------------|-------------------12--------------|
B|--12---9--12---9----9-----|--12---9--12---9------10-9-10-12~--|
G|----911-----911--11---11--|----911-----911--11----------------|
D|--------------------------|-----------------------------------|
A|--------------------------|-----------------------------------|
E|--------------------------|-----------------------------------|


Verse1:
E                      C#m
Is this the end of the moment 
                      A
Or just a beautiful unfolding
                          A
Of a love that will never be

Or maybe be

E                                     C#m
Everything that I never thought could happen
                A
Or ever come to pass and I wonder
      A               C#m
If maybe, maybe I could be 
        A
All you ever dreamed, cause you are


Chorus:
E
Beautiful inside, 
C#m              B/G#m
So lovely and I 
                      A
Can't see why I'd do 
                            E
Anything without you, you are
                      C#m
And when I'm not with you, 
                 B/G#m
I know that it's true
                   A
That I'd rather be anywhere 
                     E        C#m
But here without you
              B/G#m       A
(Anywhere but here...)


e|-----------------------------|-----------------------------|
B|--12-------12-----9----9-----|--12-------12-----9----10-9--|
G|------9-11-----11---11---11--|------9-11-----11---11-------|
D|-----------------------------|-----------------------------|
A|-----------------------------|-----------------------------|
E|-----------------------------|-----------------------------|

e|-----------------------------------|
B|--12-------12-----9----9h10-9------|
G|------9-11-----11---11--------9~\--|
D|-----------------------------------|
A|-----------------------------------|
E|-----------------------------------|


Verse2:
E                 C#m
Is this a natural feeling 
                 A
Or is it just me bleeding

All my thoughts and dreams
   E                  E/Eb          E
In hope that you will be with me or
                      C#m
Is this a moment to remember
                        A
Or just a cold day in December, I wonder
   E      E/Eb          C#m
If maybe, maybe I could be 
             A
All you ever dreamed cause you are


Chorus:
E
Beautiful inside, 
C#m              B/G#m
So lovely and I 
                      A
Can't see why I'd do 
                          E
Anything without you, you are
                      C#m
And when I'm not with you, 
                 B/G#m
I know that it's true
                   A
That I'd rather be anywhere 
                     E
But here without you


Solo: E - C#m - B/G#m - A        x2

e|----------------------------------------------------------|
B|--12-------12-----9----9-------12-------12-----9----10-9--|
G|------9-11-----11---11---11--------9-11-----11---11-------|
D|----------------------------------------------------------|
A|----------------------------------------------------------|
E|----------------------------------------------------------|

e|--------------------------------------------------------------|
B|--12-------12-----9----9h10-9----------12---------7-----------|
G|------9-11-----11---11--------9\--9-11----9---8-9---9-9-8-9---|
D|--------------------------------------------------------------|
A|--------------------------------------------------------------|
E|--------------------------------------------------------------|

e|---------------------------------------------------12----------|
B|--12-------12-----9----9-------12-------12-----9------10-9-10--|
G|------9-11-----11---11---11--------9-11-----11---11------------|
D|---------------------------------------------------------------|
A|---------------------------------------------------------------|
E|---------------------------------------------------------------|

e|-----------------------------------|
B|--12-------12-----9----9h10-9------|
G|------9-11-----11---11--------9~\--|
D|-----------------------------------|
A|-----------------------------------|
E|-----------------------------------|


Bridge:
E
Is this the end of the moment 
E
Or just a beautiful unfolding
E
Of a love that will never be for you and me


Solo2: E - C#m - B/G#m - A

e|--------------------------------------------------------------|
B|--12----------------------------------------------------------|
G|-----9-9-9-9-9-8s9-9s11-9-8s9-9s11-9--9s13s11-11-11s14s13-13--|
D|--------------------------------------------------------------|
A|--------------------------------------------------------------|
E|--------------------------------------------------------------|

e|--------------------------------------------------------------------|
B|--/121212------------/121212-----------/101010-9-10-9---------------|
G|----------111111-99----------111111-99------------------------------|
D|------------------------------------------------------11~--11s9-9~--|
A|--------------------------------------------------------------------|
E|--------------------------------------------------------------------|


Chorus/Outro:

Cause you are
E                 C#m
You're beautiful inside,
                     B/G#m
you're so lovely and I
                  A                        E
Can't see why I'd do anything without you, you are


e|--16-------16-----------------|
B|--------19-------17----19-----|  x2
G|-----16-------16----16----16--|
D|------------------------------|
A|------------------------------|
E|------------------------------|


                      C#m
And when I'm not with you,
                 B/G#m
I know that it's true
                   A                         E     C#m    B/G#m     A
That I'd rather be anywhere but here without you


E - C#m - B/G#m - A


e|--16-------16-------------17-------------|
B|--------19-------17----19----------------|  
G|-----16-------16----16-------------------|
D|-----------------------------------------|
A|-----------------------------------------|
E|-----------------------------------------|

e|--16-------16----------------------------|
B|--------19-------17----19-----------17~--|  
G|-----16-------16----16----16s1414s16-----|
D|-----------------------------------------|
A|-----------------------------------------|
E|-----------------------------------------|


End on A





Comments


Popular Safetysuit tabs & chords
Anywhere But Here 1 Chords
Anywhere But Here 2 Chords
Apology Chords
Get Around This 1 Chords
Gone Away Chords
Life Left To Go Chords
Stay Chords
These Times Chords
Annie Ukulele
Get Around This Ukulele


Song lyrics



↑ Back to top | Tablatures and chords are parodies/interpretations of the original songs. You may use it for private study, scholarship, research or language learning purposes only
© 2014 AZChords.com Contact us | Privacy policy | DMCA | Add/correct tabs | Request tabs | Top 50 tabs