» » »

Rudy And Blitz, Type Of Thing Tabs (ver.1)

Artists:  A B C D E F G H I J K L M N O P Q R S T U V W X Y Z # 

Type Of Thing Tabs (ver.1)

Rudy And Blitz Tabs
 Rating:
4/5 (4 votes)
Type Of Thing lessons Tabs too difficult? Try these video lessons and learn fast
                Tuning: Eb (eb bb gb db ab Eb)

Main Riff/Intro;     Chorus
                     "type of thing"      "it's not my type of thing"
-|-------------------|---------------------|------------------------------------|
-|-------------------|---------------------|------------------------------------|
-|-------------------|---------------------|------------------------------------|
-|-------------------|----7777777777777777-|--77777777-44444444-----------------|
-|---------2---------|----7777777777777777-|--77777777-44444444-----------------|
-|-2/4--2~---4p2-0---|----5555555555555555-|--55555555-22222222-----------------|


Breakdown:
-|------------------------------------|
-|------------------------------------|
-|-55-5--7----------55-5--7-----------|
-|-55-5--7--777777--55-5--7--777-555--|
-|-33-3--5--777777--33-3--5--777-555--|
-|----------555555-----------555-333--|

|----------------------------------------------------------|
|----------------------------------------------------------|
|-55-5---7---9-9--9--7---5---7---55-5---7---9999vv---------|
|-xx-x---x---x-x--x--x---x---x---xx-x---x---xxxx-----------|
|-33-3-/-5-/-7-7--7\-5-\-3-/-5---33-3-/-5-/-7777-----------|
|----------------------------------------------------------|


-|----------------------------------------------------------------------------|
-|----------------------------------------------------------------------------|
-|--17-17--17-/-19-/-21-21--21--19--17--19--17-17--17-19--14vvvvv-------------|
-|----------------------------------------------------------------------------|
-|----------------------------------------------------------------------------|
-|----------------------------------------------------------------------------|

(Bass for the guitar)
-|------------------------|---------------------------------------------------|
-|------------------------|---------------------------------------------------|
-|------------------------|---------------------------------------------------|
-|------------------------|---------------------------------------------------|
-|---77--5-7--------------|---------------------------------------------------|
-|-0----------------------|---------------------------------------------------|
            
Submit corrections

comments powered by Disqus
↑ Back to top | Rudy And Blitz Tabs for Type Of Thing. Lyrics for acoustic guitar and electric guitar. Tablatures and chords are parodies/interpretations of the original songs. You may use it for private study, scholarship, research or language learning purposes only