» » »

Type Of Thing Bass tabs (ver.1)

Artists:  A B C D E F G H I J K L M N O P Q R S T U V W X Y Z # 

Type Of Thing Bass tabs (ver.1)

Rudy And Blitz
Rating:
0/5 (0 votes)

Hard to play? Try these video lessons and learn fast.
                Rudy & Blitz
"Type of Thing"
Reverb on the Click

Tuning: Half Step Down - Eb Ab Db Gb


Really simple one. This is all you need.

Intro & Verse

"Type of thing"           |"It's not my.."
Gb:-----------------------|----------------------|
Db:-----------------------|----------------------|
Ab:-----------------------|----------------------|
Eb:--5555-5555-5555-5555--|-5555-5555-2222-2222--|


After the car noise is this little fill
Gb:-----------------|
Db:-----------------|
Ab:--3--3--3333--3--|
Eb:-----------------|


2nd Verse                        |End with this
Gb:------------------------------|-----------------|
Db:------------------------------|-----------------|
Ab:--7-7--5--7-----7-7--5--7-----|--7-7--5--7-7----|
Eb:-------------0-------------0--|--------------0--|


Breakdown & Solo
Gb:-------------------------|--------------------------|
Db:-------------------------|--------------------------|
Ab:--3--3--3h5--------------|--3--3--3h5---------------|
Eb:-------------5--5--5555--|-------------5--5--5p333--|
            
Hard to play? Try these video lessons and learn fast. | Correct




comments powered by Disqus
↑ Back to top | Tablatures and chords are parodies/interpretations of the original songs. You may use it for private study, scholarship, research or language learning purposes only