>
 >
Type Of Thing 1

Type Of Thing 1 Guitar Tabs

Rudy And Blitz - Type Of Thing 1 chords, tabs, tablatures, lyrics

Guitar lessons | Add/correct | Request | Top 50 tabs Artists:  A B C D E F G H I J K L M N O P Q R S T U V W X Y Z 0-9

Type Of Thing 1 Guitar Tabs – Rudy And Blitz

CD, Sheet music, Poster

Do you like Type Of Thing 1? Share with your friends now
Bass TabsTabsTabs v2
Rudy & Blitz
"Type of Thing"
Reverb on the Click

Tuning: Half Step Down - Eb Ab Db Gb Bb eb


I realize this tab is largely similar to Colin's, but he was missing a few things, and 
one is much.. cleaner.


Intro & Verse
                       |1. "Type of thing.."   |2. "It's not my.."
eb:--------------------|-----------------------|----------------------|
Bb:--------------------|-----------------------|----------------------|
Gb:--------------------|-----------------------|----------------------|
Db:--------------------|--7777-7777-7777-7777--|-7777-7777-4444-4444--|
Ab:----------2---------|--7777-7777-7777-7777--|-7777-7777-4444-4444--|
Eb:--2/4--2-----4p2p0--|--5555-5555-5555-5555--|-5555-5555-2222-2222--|


After the car noise is this little fill
eb:-----------------|
Bb:-----------------|
Gb:--5--5--xxxx--5--|
Db:--5--5--xxxx--5--|
Ab:--3--3--xxxx--3--|
Eb:-----------------|


2nd Verse Bassline
Gb:----------------|
Db:----------------|
Ab:-----7-7--5--7--|
Eb:--0-------------|


Breakdown
eb:-------------------------|-------------------------|
Bb:-------------------------|-------------------------|
Gb:--5--5--5/7--------------|--5--5--5/7--------------|
Db:--5--5--5/7--7--7--7777--|--5--5--5/7--7--7--5555--|
Ab:--3--3--3/5--7--7--7777--|--3--3--3/5--7--7--5555--|
Eb:-------------5--5--5555--|-------------5--5--3333--|


Solo - Both guitars
eb:-------------------------------|--------------------|
Bb:-------------------------------|--------------------|
Gb:--5--5--5/7----9--9---9/7/5\7--|--5--5--5/7---9~~~--|
Db:-------------------------------|--------------------|
Ab:--3--3--3/5----7--7---7/5/3\5--|--3--3--3/5---7~~~--|
Eb:-------------------------------|--------------------|


Solo Cont'd - Right Channel
eb:----------------------------------|----------------------|
Bb:----------------------------------|----------------------|
Gb:--5--5--5/7----/14--14--14/7/5\7--|--5--5--5/7---/14~~~--|
Db:----------------------------------|----------------------|
Ab:--3--3--3/5----/12--12--12/5/3\5--|--3--3--3/5---/12~~~--|
Eb:----------------------------------|----------------------|

Solo Cont'd. - Left Channel
eb:--------------------------------------|------------------------|
Bb:--13--13--13/15--17--17--17/15/13\15--|--13--13--13/15---------|
Gb:--------------------------------------|-----------------15~~~--|
Db:--10--10--10/12--14--14--14/12/10\12--|--10--10--10/12---------|
Ab:--------------------------------------|-----------------12~~~--|
Eb:--------------------------------------|------------------------|





Comments


Popular Rudy And Blitz tabs & chords
Turtle Frown Bass Tabs
Type Of Thing Bass Tabs
Abc Tabs
Be A Loaf Tabs
Carmel My Dog Tabs
Lucky Me Tabs
Shes So Brown Tabs
Teach Tabs
Turtle Frown Tabs
Type Of Thing Tabs


Song lyrics



↑ Back to top | Tablatures and chords are parodies/interpretations of the original songs. You may use it for private study, scholarship, research or language learning purposes only
© 2014 AZChords.com Contact us | Privacy policy | DMCA | Add/correct tabs | Request tabs | Top 50 tabs