» » »

What I Like About You Tabs (ver.1)

Artists:  A B C D E F G H I J K L M N O P Q R S T U V W X Y Z # 

What I Like About You Tabs (ver.1)

Romantics
Rating:
4/5 (16 votes)

Hard to play? Try these video lessons and learn fast.
                The Romantics - What I Like About You


Rhy Fig.1

e--------------|---------------|--------------------|---------------|
b-10-9-10-10-0-|-3--0-3--------|-10---9----10--10-0-|-3--0-2--2-2-0-|
g-9--9-9--9--0-|-2--0-2--------|-9----9----9---9--0-|-2--0-2--2-2-0-|
D-9--9-11-11-0-|-0--0-2--2-2---|-9----9----11--11-0-|-0--0-2--2-2-0-|
A-7--7---------|------0--0-0---|-7----7--0----------|------0--0-0---|
E--------------|-------------0-|-0--0-0-------------|---------------|

                                                    |---------------|replace
                                                    |-3--0-2--------|last m 2nd
                                                    |-2--0-2--------|time 
                                                    |-0--0-2--------|trough
                                                    |------0--------|(intro
                                                    |---------------|only)

Rhy Fig.2

e--------------|---------------|--------------|---------------|
b-0--0--2--2-0-|-3--x-3--2-2-0-|-0--0--2--2-0-|-3--x-2--2-2-0-|
g-1--1--2--2-0-|-2--x-2--2-2-0-|-1--1--2--2-0-|-2--x-2--2-2-0-|
D-2--2--2--2-0-|-4--x-2--2-2-0-|-2--2--2--2-0-|-4--x-2--2-2-0-|
A-2--2--0--0---|------0--0-0---|-2--2--0--0---|------0--0-0---|
E-0--0---------|---------------|-0--0---------|---------------|

Rhy Fig.3

e---------------|---------------|--------------|-------33|
b-0-000--2-222--|-3--x-3--2-2-0-|-0--0--2--2-3-|-------33|
g-1-111--2-222--|-2--x-2--2-2-0-|-1--1--2--2-2-|-------00|
D-2-222--2-222--|-4--x-2--2-2-0-|-2--2--2--2-4-|-------00|
A-2-222--0-000--|------0--0-0---|-2--2--0--0---|-------22|
E-0-000---------|---------------|-0--0---------|-------33|

Guitar Solo

e-3---------------|------------33|-3-------------55|-5---------|
b-3--3-3----3-3-33|-3---3--3-3-33|-3--3-3----3-3-55|-5-------2-|
g-0--0-2^4--2-0-22|-2---2--2-2-00|-0--0-2^4--2-0-22|-2-------2-|
D-0-------------00|-0---0--0-0-00|-0-------------22|-2-------2-|
A-2---------------|------------22|-2-------------00|-0-------0-|
E-3---------------|------------33|-3---------------|-----------|

e--------------|------------|-----------------|--------------|
b-2-3--3--2--4-|--5--4------|---------4-4-4-4-|-4-4-4-4-4-4/-|
g-2-2--2--2--4-|--4--4----44|-4-4-4-4-4-4-4-4-|-4-4-4-4-4-4/-|
D-2-4--4--2--4-|--6--4----44|-4-4-4-4-4-4-4-4-|-4-4-4-4-4-4/-|
A-0-------0----|----------22|-2-2-2-2-2-2-2-2-|-2-2-2-2-2-2/-|
E--------------|------------|-----------------|--------------|

Rhy Fig.4

e---------5-555---|----------------|---------5-555---|--------------|
b-5-555-0-5-555-0-|-3-3-x-3--2-2-0-|-5-555-0-5-555-0-|-3-3--2--2--0-|
g-4-444-0-6-666-0-|-2-2-x-2--2-2-0-|-4-444-0-6-666-0-|-2-2--2--2--0-|
D-6-666-0-7-777-0-|-4-4-x-2--2-2-0-|-6-666-0-7-777-0-|-4-4--2--2--0-|
A-----------------|-------0--0-0---|-----------------|------0--0----|
E-----------------|----------------|-----------------|--------------|

Rhy Fig.5

e-------------------|--------------|------------------|----------5--|
b-10---9---10--10-0-|-3-0--3--2--0-|-10--9---10--10-33|-3--0-2------|
g-9----9---9---9--0-|-2-0--2--2--0-|-9---9---9---9--22|-2--0-2------|
D-9----9---11--11-0-|-0-0--2--2--0-|-9---9---11--11-00|-0--0-2------|
A-7----7------------|------0--0----|-7---7------------|------0------|
E----0---0----------|--------------|---0---0----------|-------------|

Song Progression

Rhy Fig.1 (x2)
Rhy Fig.2 (x10)
Rhy Fig.3 
Guitar Solo
Rhy Fig.2 (x3)
Rhy Fig.4
Rhy Fig.2 (x7)
Rhy Fig.1 (x2)
Rhy Fig.5
            
Hard to play? Try these video lessons and learn fast. | Correct




comments powered by Disqus
↑ Back to top | Tablatures and chords are parodies/interpretations of the original songs. You may use it for private study, scholarship, research or language learning purposes only