» » »

Romantics, Talking In Your Sleep Bass tabs (ver.1)

Artists:  A B C D E F G H I J K L M N O P Q R S T U V W X Y Z # 

Talking In Your Sleep Bass tabs (ver.1)

Romantics Tabs
 Rating:
4.3/5 (6 votes)
Talking In Your Sleep lessons Tabs too difficult? Try these video lessons and learn fast
                  Intro
G------------------------------------------/
D------------------------------------------/
A--0-3-5----0-3-5---------0-5-3-----0-7-5--/
E------------------0-1-3-------------------/x8
   
  Chorus
G-------------------------------------------------------------------/
D--7-5--------------------------------------------------------------/
A------8-7-5-5-5-5-5-5-5-5-5-5-5-5-5-5-5-3-3-3-3-3-3-3-3------------/
E-------------------------------------------------------------------/

G-------------------------------------------------------------------/
D-------------------------------------------------------------------/
A--3-3-3-3-3-3------------------------------------0-1-1-1-1-1-1-1-1-/
E---------------0-1-3-3-3-3-3-3-3-3-3-3-3-3-3-3-3-------------------/

G-------------------------------------------------------------------/
D-------------------------------------------------------------------/
A--/7--0-3-5-------------0-5-3-----0-7-5---0-3-5---0-3-5------------/
E---------------0-1-3------------------------------------0-1-3------/

G----------------------------/
D----------------------------/
A----0-5-3----0-5-3----0-7-5-/
E----------------------------/

verse
G-------------------------------------------------------------------/
D-------------------------------------------------------------------/
A--0-3-5---0-3-5----------0-5-3----0-5-3-----0-7-5------------------/
E------------------0-1-3--------------------------------------------/x4

Chorus
G-------------------------------------------------------------------/
D--7-5--------------------------------------------------------------/
A------8-7-5-5-5-5-5-5-5-5-5-5-5-5-5-5-5-3-3-3-3-3-3-3-3------------/
E-------------------------------------------------------------------/

G-------------------------------------------------------------------/
D-------------------------------------------------------------------/
A--3-3-3-3-3-3------------------------------------0-1-1-1-1-1-1-1-1-/
E---------------0-1-3-3-3-3-3-3-3-3-3-3-3-3-3-3-3-------------------/

G---------------------------------------------------------------------------/
D---------------------------------------------------------------------------/
A--/7--0-3-5----------0-5-3---0-7-5---0-3-5---0-3-5----------0-5-3----0-7-5-/
E-------------0-1-3-----------------------------------0-1-3-----------------/

G----------------------------------------/
D----------------------------------------/
A--0-3-/5----0-3-5---------0-5-3---0-7-5-/
E-------------------0-1-3----------------/x2 second time without slide on 5


G----------------------------------------/
D----------------------------------------/
A---0-3-5---0-3-5---------0-5-3----0-7-5-/
E------------------0-1-3-----------------/x2



G-------------------------------------------------------------------/
D--7-5--------------------------------------------------------------/
A------8-7-5-5-5-5-5-5-5-5-5-5-5-5-5-5-5-3-3-3-3-3-3-3-3------------/
E-------------------------------------------------------------------/

G-------------------------------------------------------------------/
D-------------------------------------------------------------------/
A--3-3-3-3-3-3------------------------------------0-1-1-1-1-1-1-1-1-/
E---------------0-1-3-3-3-3-3-3-3-3-3-3-3-3-3-3-3-------------------/

G---------------------------------------------------------------------------/
D---------------------------------------------------------------------------/
A--/7--0-3-5----------0-5-3---0-7-5---0-3-5---0-3-5----------0-5-3----0-7-5-/
E-------------0-1-3-----------------------------------0-1-3-----------------/

G----------------------------------------/
D----------------------------------------/
A--0-3-/5----0-3-5---------0-5-3---0-7-5-/
E-------------------0-1-3----------------/repeat this little part till ends
            
Submit corrections

comments powered by Disqus
↑ Back to top | Romantics Bass for Talking In Your Sleep. Lyrics for acoustic guitar and electric guitar. Tablatures and chords are parodies/interpretations of the original songs. You may use it for private study, scholarship, research or language learning purposes only