» » »

Romantics, What I Like About You Bass tabs (ver.1)

Artists:  A B C D E F G H I J K L M N O P Q R S T U V W X Y Z # 

What I Like About You Bass tabs (ver.1)

Romantics Tabs
 Rating:
3.5/5 (8 votes)
What I Like About You lessons Tabs too difficult? Try these video lessons and learn fast
1
                A classic by The Romantics


Tuning: EADG

Time signature: 8/8

r = rest (listen for duration)
/ = slide (low to high)
{}= note inside pointed parenthesis still ringing from previous measure
||= measure gets repeated (see number of times above measure, e.g. 4x)

*My tabs are meant to be read in conjunction with listening to the song.
In other words, there are no specific notations to account for note/rest duration. 
However, you will find that I've made an attempt to strategically space the notes 
and rests within their respective measures in order to represent the appropriate 
durations.



 GUITAR INTRO 
                   
   2x                                                        
G||--------------------------------|--------------------------------||
D||--------------------------------|--------------------------------||
A||--------------------------------|--------------------------------||
E||--------------------------------|--------------------------------||



VERSE & CHORUS

  21x (with variation)
||--------------------------------||--------------------------------|
||--------------------------------||--------------------------------|
||----------------5-0-5-5---------||----------------5-5-5-5-5-5-5-5-|
||0---0-7-5-----5---------5-7-5-7-||0---0-7-5-----5-----------------|



GUITAR SOLO

|--------------------------------|--------------------------------|
|5-----5-5-----5-----------------|5-----5-5-----5-7---------------|
|----------------5-----5-5-----5-|--------------------------------|
|--------------------------------|--------------------------------|


                 
|----------------------------------|--------------------------------|
|{7}-------------------------------|--------------------------------|
|--------------------7-r-----------|--------------------------------|
|----------------5/7-----7-----5/7-|7-7-7-7-7-7-7-7-7-7-7-7-7-7-7-7-|



HARMONICA SOLO, VERSE & CHORUS

  27x (with variation)
||--------------------------------||--------------------------------|
||--------------------------------||--------------------------------|
||----------------5-0-5-5---------||----------------5-5-5-5---------|
||0---0-7-5-----5---------5-7-5-7-||0---0-7-5-----5---------5---5-r-|


(PLEASE RATE THIS TAB / LEAVE COMMENT)
            
Submit corrections

comments powered by Disqus
↑ Back to top | Romantics Bass for What I Like About You. Lyrics for acoustic guitar and electric guitar. 1 Tablatures and chords are parodies/interpretations of the original songs. You may use it for private study, scholarship, research or language learning purposes only