» » »

What I Like Tabs (ver.1)

Artists:  A B C D E F G H I J K L M N O P Q R S T U V W X Y Z # 

What I Like Tabs (ver.1)

Romantics
Rating:
0/5 (0 votes)

Hard to play? Try these video lessons and learn fast.
                Article-I.D.: ms.1992Jun16.191409.4652
Lines: 34

Does anyone know how to play the beginning lick of the Romantics' "What I Like
About You"? I know the chord structure: It's just E - A - D - A, but the last
time I tried to figure out the lick, my skills hadn't developed enough.

Any hints?

here's what i play, and i haven't had any complaints :)
we use this song as a 'closer'

--------------------2------
--10-9----5----7----3--2---
--9--9----6----7----2--2---
--9--9----7----7----0--2---
--7--7---------5-----------
---------------------------

---------------------------
--10-9----5----7-------2---
--9--9----6----7-------2---
--9--9----7----7-------2---
--7--7---------5-----------
---------------------------

repeat.  
the break after the scream goes: G - D, G - A , A -D -D -A, B- E -B, B
then back into the E - A -D thing for the harmonica solo

hope this helps!

-- 
{backbone|rutgers|uunet}!ukma!aash     say was wrong, was wrong, was wrong."
            
Hard to play? Try these video lessons and learn fast. | Correct




comments powered by Disqus
↑ Back to top | Tablatures and chords are parodies/interpretations of the original songs. You may use it for private study, scholarship, research or language learning purposes only