>
 >
Parting Time 5

Parting Time 5 Guitar Tabs

Rockstar - Parting Time 5 chords, tabs, tablatures, lyrics

Guitar lessons | Add/correct | Request | Top 50 tabs Artists:  A B C D E F G H I J K L M N O P Q R S T U V W X Y Z 0-9

Parting Time 5 Guitar Tabs – Rockstar

CD, Sheet music, Poster

Do you like Parting Time 5? Share with your friends now
Bass TabsChordsChords v2Chords v3Chords v4Chords v5TabsTabs v2Tabs v3Tabs v4Tabs v5Tabs v6Ukulele
PARTING TIME BY ROCKSTAR

Para 'to sa inyong lahat..sau rin *****,para sayo talaga toh..sana magustuhan mo...

     A              E
I remember the days 
             F#m
When you're here with me 
         D         A
Those laughter and tears 
                Bm       E
We shared for years...hhmmmm...
A                 E
Mem'ries that we had 
        F#m
For so long it's me and you 
D                 A
Now you're gone away 
     Bm           E
You left me all alone 



B    F#   G#m
Go on,....do what you want
       E                B
But please don't leave me 
         C#m      F#
You'll break my heart 
       B           F#
Hey, what should I do 
       G#m
Babe, I'm missin' you 
   E               B
Please don't disappear 
               C#m                   F#
These are the words that you should hear
 


D               A
Time and time again
             Bm        A  -E
I wish that you were here
 


                A       E
I don't wanna lose you girl
            F#m      D-E
I need you back to me
           A
I don't wanna lose you
E     F#m          D-E
Baby can't you see 
        A
Oh, I need you 
   E          F#m       D-E
You've been a part of me


D  A                  Bm       E   Bm-C#m
I wish someday you'll be back home
D      A         Bm
'Cause I really miss you
   E  Bm-C#m
Darling,
   D          A  Bm E
Please come home

ETO ANG CHORDS NG ADLIB: A-E-F#m-D-E(3X)
ADLIB:02min:19sec
e|---------------------------------------------------------|
B|--10/12-12------12b14-12b14----12b14-10----10------------|
G|----------------------------------------11------11-9-11--|
D|---------------------------------------------------------|
A|---------------------------------------------------------|
E|---------------------------------------------------------|

e|------------------------9-10-9---------------------------|
B|----------------9-10-12---------------12-10--------------|
G|---------9x-11x-------------------------------9+---------|
D|--9x-11x-----------------------11-----------9-----7------|
A|-----------------------------------------------------9---|
E|---------------------------------------------------------|

e|----------------------------------------12-------12-----------|
B|-------------9------9-9b10-9b10-12b14-----12b14-----12b14----|
G|--11-9----11---11-9-------------------------------------------|
D|-------12-----------------------------------------------------|
A|--------------------------------------------------------------|
E|--------------------------------------------------------------|

e|---------17-------|-----------------17/19-17---|
B|--17b19-----17b19-|--17b19----17/19------------|
G|------------------|--------18------------------|
D|------------------|----------------------------|
A|------------------|----------------------------|
E|------------------|----------------------------|


D  A                  Bm       E   Bm-C#m
I wish someday you'll be back home
D      A         Bm
'Cause I really miss you
   E  Bm-C#m
Darling,
   D          A  Bm E
Please come home..........

that's it...pls comment naman poh kau dito...

| b  bend
| /  slide up
| \  slide down
| h  hammer-on
| p  pull-off
| ~  vibrato
| +  harmonic
| x  Mute note





Comments


Popular Rockstar tabs & chords
Parting Time Bass Tabs
Mahal Pa Rin Kita Chords
Parting Time 1 Chords
Parting Time 2 Chords
Parting Time 4 Chords
Parting Time 6 Tabs
Bakit Kaya Ukulele
Hindi Ko Naisip Ukulele
Ikay Mahal Parin Ukulele
Mahal Pa Rin Kita Ukulele


Song lyrics



↑ Back to top | Tablatures and chords are parodies/interpretations of the original songs. You may use it for private study, scholarship, research or language learning purposes only
© 2014 AZChords.com Contact us | Privacy policy | DMCA | Add/correct tabs | Request tabs | Top 50 tabs