>
 >
Parting Time 1

Parting Time 1 Chords

Rockstar - Parting Time 1 chords, tabs, tablatures, lyrics

Guitar lessons | Add/correct | Request | Top 50 tabs Artists:  A B C D E F G H I J K L M N O P Q R S T U V W X Y Z 0-9

Parting Time 1 Chords – Rockstar

CD, Sheet music, Poster

Do you like Parting Time 1? Share with your friends now
Bass TabsChordsChords v2Chords v3Chords v4Chords v5TabsTabs v2Tabs v3Tabs v4Tabs v5Tabs v6Ukulele
Song Title: Parting Time
Band Name: Rockstar


Intro: A - E/G# - F#m - E
       D - A - Bm - Esus4-E


Verse:

  A               - E/G#
I remember the days
            F#m       - E
When you're here with me
      D              A
Those laughter and tears
   Bm         Esus4  - E
We shared for years, uhum
A                 - E/G#
Mem'ries that we had
       F#m              E
For so long it's me and you
D               A
Now you're gone away
    Bm          B   - F#
You left me all alone


B-F#/Bb  Abm7        F# 
Go on, do what you want
    E            B
But please don't leave me
       C#m         F#sus4 - F#
You'll break my heart
     B             F#/Bb
Hey, what should I do
      Abm7        F#
Babe, I'm missin' you
E            B
Please don't disappear
              C#m            F#sus4 - F#
These are the words that you should hear


D             A/C#
Time and time again
            Bm       A   - E-Esus4
I wish that you were here


Refrain:
              A         E/G#
I don't wanna lose you girl
           F#m       D - E
I need you back to me
              A
I don't wanna lose you
E/G#   F#m        D - E
Baby can't you see
      A
Oh, I need you
E/G#         F#m       D - E
You've been a part of me


Chorus:

Lead Guitar w/ Overdrive:
    D      A/C#   Bm     A       (A/C#)
e:|-------------------------------------|
B:|-------------------------------------|
G:|-------------------------------------|
D:|-------------------------------------|
A:|--5v~----4v~----2v~-------------4v~--|
E:|-----------------------5v~----5------|
PM|                              *      |

D      A/C#           Bm      A   - (A/C#)
I wish someday you'll be back home
D      A/C#     Bm        A   - (A/C#)
'Cause I really miss you, darling
D           A      E
Please come home


Guitar Solo (exported from GP):
                         A                        E/G#                     
      W                     Q      H.                Q.       E    Q       E   E   
---------------------|-------------------------|-------------------------------|
---------------------|-------------------------|-------------------------------|
---------------------|--16b----16b~------------|--L------------16br----14------|
---------------------|-------------------------|---------(14)--------------16--|
---L-----------------|-------------------------|-------------------------------|
--(0)----------------|-------------------------|-------------------------------|

                                PM  PM  PM  PM              PM  
   H          E   E   Q         E   E   E   E   E   E   E   E   
----------------------------|----------------------------------|
----------------------------|--------------------------14--15--|
--14~-----------------------|--------------13--14--16----------|
-------------16--14--16~----|------14--16----------------------|
----------------------------|--17------------------------------|
----------------------------|----------------------------------|

                         PM                      PH       
   E   E   H         E   E      E   E  Q.        Q.       
----------------------------|----------------------------|
--15--14----------------12--|--12--10--------------------|
----------------------------|------------------<>9b------|
----------11~--------L------|----------9~----------------|
----------------------------|----------------------------|
----------------------------|----------------------------|

  H         H            E  E  E  E  E  E  E  E      Q.      E   Q.       E   
----------------------|--------------------------|---------------------------|
----------------------|--7--5-----7--9--7-----9--|--10~------9--10~------12--|
----------------------|--------7-----------9-----|---------------------------|
--7~------------------|--------------------------|---------------------------|
------------9~--------|--------------------------|---------------------------|
----------------------|--------------------------|---------------------------|

                              PM                             
   E    E   Q      E   Q      E      Q.       E   H          
-------12---------12-------------|-----------17-------------|
--12b---L--12b-----L--12b--------|--17b-------L--17b--------|
-----------------------------11--|--------------------------|
---------------------------------|--------------------------|
---------------------------------|--------------------------|
---------------------------------|--------------------------|

   E   E   E   Q.       Q         W                    W                 
-----------------------17b----|--17~----------------|--L----------------|
--19--------------------------|---------------------|-------------------|
------19------19b-------------|---------------------|-------------------|
----------19------------------|---------------------|-------------------|
------------------------------|---------------------|-------------------|
------------------------------|---------------------|-------------------|





Comments


Popular Rockstar tabs & chords
Bakit Kaya Chords
Hindi Ko Naisip Chords
Jo Bhi Main Chords
Krisinata Chords
Parting Time 4 Chords
Parting Time 3 Tabs
Parting Time 5 Tabs
Bakit Kaya Ukulele
Hindi Ko Naisip Ukulele
Wala Pa Ring Iba Ukulele


Song lyrics



↑ Back to top | Tablatures and chords are parodies/interpretations of the original songs. You may use it for private study, scholarship, research or language learning purposes only
© 2014 AZChords.com Contact us | Privacy policy | DMCA | Add/correct tabs | Request tabs | Top 50 tabs