» » »

Rockstar, Parting Time Bass tabs (ver.1)

Artists:  A B C D E F G H I J K L M N O P Q R S T U V W X Y Z # 

Parting Time Bass tabs (ver.1)

Rockstar Tabs
Rating:
4/5 (1 vote)
Parting Time lessons Tabs too difficult? Try these video lessons and learn fast
                -------------------------------------------------------------------------------
-------------------------------------------------------------------------------


Tuning: EADG


 Bass comes in before the chorus.. At the E chord

G|----------|
D|----------|
A|----------|
E|---12~----|

 Chorus:

G|------------------|
D|------------------| X3
A|-------------5-7--|
E|-5-5-4-4-2-2------|

 Coda:

G|----------------------------|
D|----------------------------|
A|-5--5--4--4--2--2--0--2-4---| X2
E|----------------------------|


G|------------------------------|
D|------------------------------|
A|-5--5--4--4--2--2--0--2-2/7---|
E|------------------------------|

 Do chorus for Solo

 Coda

 That's iT :D it's a simple tab :D



| /  slide up
| \  slide down
| h  hammer-on
| p  pull-off
| ~  vibrato
| +  harmonic
| x  Mute note
===============================================================================
            

comments powered by Disqus
↑ Back to top | Rockstar Bass for Parting Time. Lyrics for acoustic guitar and electric guitar. Tablatures and chords are parodies/interpretations of the original songs. You may use it for private study, scholarship, research or language learning purposes only