» » »

Robbie Williams, Mr Bojangles Tabs (ver.2)

Artists:  A B C D E F G H I J K L M N O P Q R S T U V W X Y Z # 

Mr Bojangles Tabs (ver.2)

Robbie Williams Tabs
Rating:
0/5 (0 votes)
Mr Bojangles lessons Tabs too difficult? Try these video lessons and learn fast
                Mr. Bojangles   -   Robbie Williams                    



(medium swing walz)

      F                     C/E                 Dm                
E||----------------------|-------------------|-------------------|
B||------10-------10-----|-----8-------8-----|-----6-------6-----|
G||*-----10-------10-----|-----5-------5-----|-----7-------7-----|
D||*-----10-------10-----|-----5-------5-----|-----7-------7-----|
A||---8--------8------8--|--7-------7-----7--|--5-------5-----5--|
E||----------------------|-------------------|-------------------|


  C    Dm7  C/E        F                     C/E               
------------------||----------------------|-------------------|
--5----6----8-----||------10-------10-----|-----8-------8-----|
--5----5----5----*||*-----10-------10-----|-----5-------5-----|
--5----7----5----*||*-----10-------10-----|-----5-------5-----|
--3----5----7-----||---8--------8------8--|--7-------7-----7--|
------------------||----------------------|-------------------|


  Dm                  C    Dm7  C/E     Bb7M              
-------------------|-----------------|-------------------|
-----6-------6-----|--5----6----8----|-----6-------6-----|
-----7-------7-----|--5----5----5----|-----7-------7-----|
-----7-------7-----|--5----7----5----|-----7-------7-----|
--5-------5-----5--|--3----5----7----|-------------------|
-------------------|-----------------|--6-------6-----6--|


                      C                   C    Dm7  C/E   
-------------------|-------------------|-----------------|
-----6-------6-----|-----5-------5-----|--5----6----8----|
-----7-------7-----|-----5-------5-----|--5----5----5----|
-----7-------7-----|-----5-------5-----|--5----7----5----|
-------------------|--3-------3-----3--|--3----5----7----|
--6-------6-----6--|-------------------|-----------------|


  Bb7M                                    Am7               
-------------------|-------------------|-------------------|
-----6-------6-----|-----6-------6-----|-----5-------5-----|
-----7-------7-----|-----7-------7-----|-----5-------5-----|
-----7-------7-----|-----7-------7-----|-----5-------5-----|
-------------------|-------------------|-------------------|
--6-------6-----6--|--6-------6-----6--|--5-------5-----5--|


  A7                  Dm                  Dm/C              
-------------------|-------------------|-------------------|
-----5-------5-----|-----6-------6-----|-----6-------6-----|
-----6-------6-----|-----7-------7-----|-----5-------5-----|
-----5-------5-----|-----7-------7-----|-----7-------7-----|
-------------------|--5-------5-----5--|-------------------|
--5-------5-----5--|-------------------|--8-------8-----8--|


  G7/H                                    C7                
-------------------|-------------------|-------------------|
-----6-------6-----|-----6-------6-----|-----5-------5-----|
-----7-------7-----|-----7-------7-----|-----3-------3-----|
-----5-------5-----|-----5-------5-----|-----5-------5-----|
-------------------|-------------------|--3-------3-----3--|
--7-------7-----7--|--7-------7-----7--|-------------------|


                                                            2x
-------------------|-------------------|--------------------||
-----5-------5-----|-----5-------5-----|-----5-------5------||
-----3-------3-----|-----3-------3-----|-----3-------3-----*||
-----5-------5-----|-----5-------5-----|-----5-------5-----*||
--3-------3-----3--|--3-------3-----3--|--3-------3-----3---||
-------------------|-------------------|--------------------||


   Dm                                      C7                
--------------------|-------------------|-------------------|
------6-------6-----|-----6-------6-----|-----5-------5-----|
*-----7-------7-----|-----7-------7-----|-----3-------3-----|
*-----7-------7-----|-----7-------7-----|-----5-------5-----|
---5-------5-----5--|--5-------5-----5--|--3-------3-----3--|
--------------------|-------------------|-------------------|


                    2x   F                   3x
--------------------||-----------------------||
-----5-------5------||------10-------10------||
-----3-------3-----*||*-----10-------10-----*||
-----5-------5-----*||*-----10-------10-----*||
--3-------3-----3---||---8--------8------8---||
--------------------||-----------------------||


[Lyrics]

I knew a man 'Bojangles'
And he'd dance for you
In worn out shoes 
With silver hair, a ragged shirt and baggy pants
He would do the old soft shoe
He would jump so high, jump so high
Then he lightly touch down

He told me of the time he worked with Minstrel shows 
Travelling throughout the south
He spoke with tears of fifteen years
How his dog and he, they would travel about.
But his dog up and died, he up and died
And after twenty years he still grieved

He said "I dance now
At every chance in the Honky Tonks
For my drinks and tips
But most the time I spend
Behind these country bars
You see on I drinks a bit"
Then he shook his head
Oh lord when he shook his head
I could swear I heard someone say please

Mister Bojangles
Call him Mister Bojangles
Mister Bojangles come back and dance please

Come back and dance again Mr Bojangles
            

comments powered by Disqus
↑ Back to top | Robbie Williams Tabs for Mr Bojangles. Lyrics for acoustic guitar and electric guitar. Tablatures and chords are parodies/interpretations of the original songs. You may use it for private study, scholarship, research or language learning purposes only