» » »

Mr Bojangles Tabs (ver.1)

Artists:  A B C D E F G H I J K L M N O P Q R S T U V W X Y Z # 

Mr Bojangles Tabs (ver.1)

Robbie Williams
Rating:
0/5 (0 votes)

Tabs too difficult? Try these video lessons and learn fast.
                Mr Bojangles – Robbie Williams   (Capo on 5)

Intro:
   C             Em7           Am            G   Am  Em7
e|---0-----0---|-------------|-------------|-------------|
B|---1-----1---|---3-----3---|---1-----1---|-0---1---3---|
G|---0-----0---|---0-----0---|---2-----2---|-0-----------|
D|-------------|-------------|---2-----2---|-------------|
A|-3-----3-----|-2-----2-----|-0-----0-----|-----0---2---|
E|-------------|-------------|-------------|-3-----------| (play 4x)

Couplet:
   C             Em7           Am            G  Gsus G
e|---0-----0---|-------------|-------------|-------------|
B|---1-----1---|---3-----3---|---1-----1---|----0h1--0---|
G|---0-----0---|---0-----0---|---2-----2---|----0----0---|
D|-------------|-------------|---2-----2---|-------------|
A|-3-----3-----|-2-----2-----|-0-----0-----|-------------|
E|-------------|-------------|-------------|-3-----------|

   Am/F          Am/F          G             G   Am  Em7
e|-------------|-------------|-------------|-------------|
B|---1-----1---|---1-----1---|---0-----0---|-0---1---3---|
G|---2-----2---|---2-----2---|---0-----0---|-0-----------|
D|---2-----2---|---2-----2---|---0-----0---|-------------|
A|-------------|-------------|-------------|-----0---2---|
E|-1-----1-----|-1-----1-----|-3-----3-----|-3-----------|

   C             Em7           Am            G  Gsus G
e|---0-----0---|-------------|-------------|-------------|
B|---1-----1---|---3-----3---|---1-----1---|-0--0h1--0---|
G|---0-----0---|---0-----0---|---2-----2---|-0--0----0---|
D|-------------|-------------|---2-----2---|-------------|
A|-3-----3-----|-2-----2-----|-0-----0-----|-------------|
E|-------------|-------------|-------------|-3-----------|

   Am/F          Am/F          G             G  Gsus G
e|-------------|-------------|-------------|-------------|
B|---1-----1---|---1-----1---|---0-----0---|----0h1--0---|
G|---2-----2---|---2-----2---|---0-----0---|----0----0---|
D|---2-----2---|---2-----2---|---0-----0---|-------------|
A|-------------|-------------|-------------|-------------|
E|-1-----1-----|-1-----1-----|-3-----3-----|-3-----------|

   Am/F          Am/F          G/E           E7
e|-------------|-------------|-------------|---------0---|
B|---1-----1---|---1-----1---|---0-----0---|-------------|
G|---2-----2---|---2-----2---|---0-----0---|----1--------|
D|---2-----2---|---2-----2---|---0-----0---|----0--------|
A|-------------|-------------|-------------|-------------|
E|-1-----1-----|-1-----1-----|-0-----0-----|-0-----------|

   Am            Am7/G         D9/B          D9/B
e|-------------|-------------|-------------|-------------|
B|---1-----1---|---1-----1---|---1-----1---|-1-------1---|
G|---2-----2---|---0-----0---|---2-----2---|-2-------2---|
D|---2-----2---|---2-----2---|---0-----0---|-0-------0---|
A|-0-----0-----|-------------|-------------|-------------|
E|-------------|-3-----3-----|-2-----2-----|-2-------2---|

   Gsus          Gsus          G             G   Am  Em7
e|-------------|-------------|-------------|-------------|
B|---1-----1---|---1-----1---|---0-----0---|-0---1---3---|
G|---0-----0---|---0-----0---|---4-----4---|-4-----------|
D|---0-----0---|---0-----0---|---0-----0---|-------------|
A|-------------|-------------|-------------|-----0---2---|
E|-3-----3-----|-3-----3-----|-3-----3-----|-3-----------|

Refrain:
   Am            Am            G             G
e|-------------|-------------|-------------|-------------|
B|---1-----1---|---1-----1---|---0-----0---|---0-----0---|
G|---2-----2---|---2-----2---|---0-----0---|---0-----0---|
D|---2-----2---|---2-----2---|---0-----0---|---0-----0---|
A|-0-----0-----|-0-----0-----|-------------|-------------|
E|-------------|-------------|-3-----3-----|-3-----3-----|

   Am            Am            G             G
e|-------------|-------------|-------------|-------------|
B|---1-----1---|---1-----1---|---0-----0---|---0-----0---|
G|---2-----2---|---2-----2---|---0-----0---|---0-----0---|
D|---2-----2---|---2-----2---|---0-----0---|---0-----0---|
A|-0-----0-----|-0-----0-----|-------------|-------------|
E|-------------|-------------|-3-----3-----|-3-----3-----|

   Am            Am            G             G   Am  Em7
e|-------------|-------------|-------------|-------------|
B|---1-----1---|---1-----1---|---0-----0---|-0---1---3---|
G|---2-----2---|---2-----2---|---0-----0---|-0-----------|
D|---2-----2---|---2-----2---|---0-----0---|-------------|
A|-0-----0-----|-0-----0-----|-------------|-----0---2---|
E|-------------|-------------|-3-----3-----|-3-----------|

   C             Em7           Am            Am      G
e|---0-----0---|-------------|-------------|-------------|
B|---1-----1---|---3-----3---|---1-----1---|---1-----0---|
G|---0-----0---|---0-----0---|---2-----2---|---2-----0---|
D|-------------|-------------|---2-----2---|---2---------|
A|-3-----3-----|-2-----2-----|-0-----0-----|-0-----------|
E|-------------|-------------|-------------|---------3---|

   Am            Am            G             G
   *   *   *     *   *   *     *   *   *     *   *   * 
e|-------------|-------------|-------------|-------------|
B|---1-----1---|---1-----1---|---0-----0---|---0-----0---|
G|---2-----2---|---2-----2---|---0-----0---|---0-----0---|
D|---2-----2---|---2-----2---|---0-----0---|---0-----0---|
A|-0-----0-----|-0-----0-----|-------------|-------------|
E|-------------|-------------|-3-----3-----|-3-----3-----|

   Am            Am            G             G
   *   *   *     *   *   *     *   *   *     *   *   * 
e|-------------|-------------|-------------|-------------|
B|---1-----1---|---1-----1---|---0-----0---|---0-----0---|
G|---2-----2---|---2-----2---|---0-----0---|---0-----0---|
D|---2-----2---|---2-----2---|---0-----0---|---0-----0---|
A|-0-----0-----|-0-----0-----|-------------|-------------|
E|-------------|-------------|-3-----3-----|-3-----3-----|

   Am            Am            G             G   Am  Em7
e|-------------|-------------|-------------|-------------|
B|---1-----1---|---1-----1---|---0-----0---|-0---1---3---|
G|---2-----2---|---2-----2---|---0-----0---|-0-----------|
D|---2-----2---|---2-----2---|---0-----0---|-------------|
A|-0-----0-----|-0-----0-----|-------------|-----0---2---|
E|-------------|-------------|-3-----3-----|-3-----------|

   C             Em7           Am            G   Am  Em7
e|---0-----0---|-------------|-------------|-------------|
B|---1-----1---|---3-----3---|---1-----1---|-0---1---3---|
G|---0-----0---|---0-----0---|---2-----2---|-0-----------|
D|-------------|-------------|---2-----2---|-------------|
A|-3-----3-----|-2-----2-----|-0-----0-----|-----0---2---|
E|-------------|-------------|-------------|-3-----------| (play 4x)

   C (let ring) outro
e|-----0-|
B|----1--|
G|---0---|
D|--2----|
A|-3-----|
E|-------|




Lyrics
Intro:
(Bo-jang-ga-jang-ga, Bo-jang-ga-jang-ga, Bo-jang-ga-jang-ga, Bo-jang-ga-jang-ga, 
Bo-jang-ga-jang-ga)
*whistling*
Couplet 1:
I knew a man, Bojangles and he'll dance for you
in worn out shoes
with silver hair, a ragged shirt and baggy pants
he would do the old soft shoe
he would jump so high, jump so high
then he'd lightly touch-down
Couplet 2:
he told me of a time he worked with, with minstrel shows
travelling throughout the south
spoke with tears for 15 years how his, how his dog and he
they would travel about
but his dog up 'n died
up 'n died
after 20 years he still grieves
Couplet 3:
he said "I dance now at every chance in Honkey Tonks
for my drinks and tips
but most the time I, I spend behind this county bars
you son I, I drinks a bit"
then he shook his head
oh lord, when he shook his head
I could swear I heard somebody sing "please, please
Refrain:
that's Mr. Bojangles
call him Mr. Bojangles
Mr. Bojangles, come back
and dance, and dance, and dance please dance

Mr. Bojangles
Mr. Bojangles
Mr. Bojangles come back
and dance, and dance, and dance please dance"

(come back and dance again Mr. Bojangles)
*whistling*
            
Tabs too difficult? Try these video lessons and learn fast.


comments powered by Disqus
↑ Back to top | Tablatures and chords are parodies/interpretations of the original songs. You may use it for private study, scholarship, research or language learning purposes only