» » »

Angels Bass tabs (ver.2)

Artists:  A B C D E F G H I J K L M N O P Q R S T U V W X Y Z # 

Angels Bass tabs (ver.2)

Robbie Williams
Rating:
4/5 (2 votes)

Tabs too difficult? Try these video lessons and learn fast.
                tuning: standard

intro              verse
-----------------||-----------------|-----------------|
-----------------||-----------------|-----------------|
-----------------||-----------------|-0-0-0-0-2-2-2-2-|
-0-0-0-0-0-0-0-0-||-0-0-0-0-0-0-0-0-|-----------------|

-----------------|-----------------|-----------------|
-----------------|-----------------|-----------------|
-----------------|-0-0-0-0-2-2-2-2-|---------0-0-0-0-|
-0-0-0-0-0-0-0-0-|-----------------|-2-2-2-2---------|

-----------------|-----------------|-----------------------|
-----------------|-0-0-0-0---------|---------0-0-0---------|
-4-4-4-4-0-0-0-0-|---------0-0-0-0-|---------------0-0-----|
-----------------|-----------------|-0-0-0-0-----------0-0-|

chorus
-----------------|-----------------|  |-----------------------|
-----------------|-----------------|  |----------0-0-0--------|
-2-2-2-2-4-4-4-4-|-0-0-0-0---------|x2|----------------0-0----|
-----------------|---------0-0-0-0-|  |-2-2-2-2------------0-0|

          2nd verse     
|s||-----------------|-----------------|  
|t||-----------------|-----------------|
|o||-----------------|-0-0-0-0-2-2-2-2-|
|p||-0-0-0-0-0-0-0-0-|-----------------|

-----------------|-----------------| 
-----------------|-----------------|
-----------------|-0-0-0-0-2-2-2-2-|
-0-0-0-0-0-0-0-0-|-----------------|

-----------------|-----------------------|
-0-0-0-0---------|---------0-0-0---------|
---------0-0-0-0-|---------------0-0-----|
-----------------|-0-0-0-0-----------0-0-|

chorus
-----------------|-----------------|  |-----------------------|
-----------------|-----------------|  |----------0-0-0--------|
-2-2-2-2-4-4-4-4-|-0-0-0-0---------|x2|----------------0-0----|
-----------------|---------0-0-0-0-|  |-2-2-2-2------------0-0|

during solo play chorus 3 times 
and end on:
-----------------|-----------------|
-----------------|-----------------|
-2-2-2-2-4-4-4-4-|-0-0-0-0-0-0-0-0-|
-----------------|-----------------|

chorus                                                     end
-----------------|-----------------|  |-------------------------|
-----------------|-----------------|  |----------0-0-0----------|
-2-2-2-2-4-4-4-4-|-0-0-0-0---------|x2|----------------0-0------|
-----------------|---------0-0-0-0-|  |-2-2-2-2------------0-0~-|
            
Tabs too difficult? Try these video lessons and learn fast.


comments powered by Disqus
↑ Back to top | Tablatures and chords are parodies/interpretations of the original songs. You may use it for private study, scholarship, research or language learning purposes only