» » »

Robbie Williams, Angels Tabs (ver.1)

Artists:  A B C D E F G H I J K L M N O P Q R S T U V W X Y Z # 

Angels Tabs (ver.1)

Robbie Williams Tabs
Rating:
5/5 (14 votes)
Angels lessons Tabs too difficult? Try these video lessons and learn fast
                e|-------------------------------------------------------------------------|
B|-------------------------------------------------------------------------|
G|----------------020----0200---------------------------00-------------020-|
D|----20--------2------2-----------20--------20202---202-------20----2-----|
A|-------3----------------------------3--------------------------3---------|
E|--3----------------------------3---------3-----------------3-------------|

e|-------------------------------------------------------------------------|
B|-------------------------------------------------------------------------|
G|----0200-----------------------------------------------------------------|
D|--3--------22332323----32323---2220202--33320----------------------------|
A|---------------------------------------------33--------------------------|
E|---------------------3---------------------------------------------------|

e|--------------0--------------------------------------0-------------------|
B|-----3---13131-3---1-11-31------------------3---13131-3----1-1-31--------|
G|----0-------------2-2--2---222200---------00--------------2-2-2----22200-|
D|---2------------------------------------22-------------------------------|
A|--3------------------------------------3---------------------------------|
E|-------------------------------------------------------------------------|
            

comments powered by Disqus
↑ Back to top | Robbie Williams Tabs for Angels. Lyrics for acoustic guitar and electric guitar. Tablatures and chords are parodies/interpretations of the original songs. You may use it for private study, scholarship, research or language learning purposes only