» » »

Everchanging Tabs (ver.2)

Artists:  A B C D E F G H I J K L M N O P Q R S T U V W X Y Z # 

Everchanging Tabs (ver.2)

Rise Against
Rating:
0/5 (0 votes)

Hard to play? Try these video lessons and learn fast.
                e----------------------------------------------
b----------------------------------------------
g----------------------------------------------
d-----5-------3-------2------------------------    x4
a---3---3---3---3---3--3---3-2-3-2-------------
e-5-------5-------3------3---------------------

secnod part
e--------------------------------------
b--------------------------------------
g---------5----------------------------
d-7---3---5---5------------------------
a-7---3---3---5------------------------
e-5---1-------3------------------------

this is a great song. i only tabbed part of it because i didnt feel like tabbing the rest. the second part has wierd picking so you will have to figure it out

hey Paul
            
Hard to play? Try these video lessons and learn fast. | Correct




comments powered by Disqus
↑ Back to top | Tablatures and chords are parodies/interpretations of the original songs. You may use it for private study, scholarship, research or language learning purposes only