» » »

Rise Against, Everchanging Tabs (ver.1)

Artists:  A B C D E F G H I J K L M N O P Q R S T U V W X Y Z # 

Everchanging Tabs (ver.1)

Rise Against Tabs
 Rating:
4/5 (4 votes)
Everchanging lessons Tabs too difficult? Try these video lessons and learn fast
                INTRO: a lot of distortion and played kinda lightly 
e|---------------------------------------------------------------------------| 
B|---------------------------------------------------------------------------| 
G|---------------------------------------------------------------------------| 
D|-----5---------3---------2-----0-------------------------------------------| 
A|-0-3---3-3-0-3---3-3---3---3-3---3---3-------------------------------------| 
E|---------------------3-------------3---------------------------------------| 
-in-the-face,-of-change-is-when-she-turned-and-said... 

INTRO/VERSE (play twice, each time starting with the lyrics below) 
e|---------------------------------------------------------------------------| 
B|---------------------------------------------------------------------------| 
G|-000000-------------------------000000-------------------------------------| 
D|-222222-333333-222222-0---------222222-333333-222222-----------------------| 
A|-333333-333333-333333--3-2222---333333-333333-333333-5-3-2222--------------| 
E|--------111111-555555----3333----------111111-555555-7-5-3333--------------| 
(In the face...) 
(And there, amidst...) 

MORE VERSE (all palm muted) 
e|-palm muted...-------------------------------------------------------------| 
B|---------------------------------------------------------------------------| 
G|-55555555----------------------------55555555------------------------------| 
D|-55555555-33333333-22222222-55555555-55555555-33333333-22222222-55555555---| 
A|-33333333-33333333-33333333-55555555-33333333-33333333-33333333-55555555---| 
E|----------11111111-55555555-33333333----------11111111-55555555-33333333---| 
(Have you ever been a part of something...) 
(Have you ever felt the weight inside you...) 

LITTLE RIFF in between VERSE and CHORUS 
e|---------------------------------------------------------------------------| 
B|---------------------------------------------------------------------------| 
G|-12-12-12-12-12-12-12-12--10-10-10-10-10--9--5-5-5-5-----------------------| 
D|---------------------------------------------------------------------------| 
A|-10-10-10-10-10-10-10-10--8--8--8--8--8---7--3-3-3-3-----------------------| 
E|---------------------------------------------------------------------------| 

CHORUS (Sounds like full chords) 
C G C F C G F 
e|---------------------------------------------------------------------------| 
B|---------------------------------------------------------------------------| 
G|-55555555----------55555555----------55555555------------------------------| 
D|-55555555-55555555-55555555-33333333-55555555-55555555-33333333333333------| 
A|-33333333-55555555-33333333-33333333-33333333-55555555-33333333333333------| 
E|----------33333333----------11111111----------33333333-11111111111111------| 
(Now the lines are drawn...) 
(With the reasons clear...) 

VERSE 3 
e|-----/---------------------------------------------------------------------| 
B|-----/---------------------------------------------------------------------| 
G|-5---/-000000----------------------000000----------------------------------| 
D|-5-5-/-222222-333333-222222-555555-222222-333333-222222-555555-------------| 
A|-3-5-/-333333-333333-333333-555555-333333-333333-333333-555555-------------| 
E|---3-/--------111111-555555-333333--------111111-555555-333333-------------| 
(There's nothing simple when...) 
(Now the time is getting harder...) 

LITTLE RIFF x1 
CHORUSE x1 

e|---------------------------------------------------------------------------| 
B|---------------------------------------------------------------------------| 
G|-5-------------------------------------------------------------------------| 
D|-5-let ring...-------------------------------------------------------------| 
A|-3-------------------------------------------------------------------------| 
E|---------------------------------------------------------------------------| 
(Now something, has kept me here...) 

e|---------------------------------------------------------------------------| 
B|---------------------------------------------------------------------------| 
G|-555555----------------------555555----------------------------------------| 
D|-555555-333333-222222-555555-555555-333333-555555555555--------------------| 
A|-333333-333333-333333-555555-333333-333333-555555555555--------------------| 
E|--------111111-555555-333333--------111111-333333333333--------------------| 
(Now something, has kept me here...) 
(Now something, has kept me here...) 
(Since we make the same mistakes, were always hanging on...) 
(Keep this line open to get this call from you...) 

e|---------------------------------------------------------------------------| 
B|---------------------------------------------------------------------------| 
G|-5-------------------------------------------------------------------------| 
D|-5-let ring...-------------------------------------------------------------| 
A|-3-------------------------------------------------------------------------| 
E|---------------------------------------------------------------------------| 
(Now something has kept me here too long and now im gone)
            
Submit corrections

comments powered by Disqus
↑ Back to top | Rise Against Tabs for Everchanging. Lyrics for acoustic guitar and electric guitar. Tablatures and chords are parodies/interpretations of the original songs. You may use it for private study, scholarship, research or language learning purposes only