» » »

Audience Of One Tabs (ver.1)

Artists:  A B C D E F G H I J K L M N O P Q R S T U V W X Y Z # 

Audience Of One Tabs (ver.1)

Rise Against
Rating:
0/5 (0 votes)

Hard to play? Try these video lessons and learn fast.
                
PM - palm mute dotted (.) notes
* - natural harmonic

Intro Guitar 1:

Eb----------------------------------------------------------------------------------|
Bb----10-----10-----10-----10-----10---10---10-----10-----10-----10-----10---10-----|
Gb-------7-7----7-7----7-7----7-7----7----7----7-7----7-7----7-7----7-7----7----7---|
Db----------------------------------------------------------------------------------|
Ab----------------------------------------------------------------------------------|
Eb----------------------------------------------------------------------------------|
PM       . .    . .    . .    . .    .    .    . .    . .    . .    . .    .    .

Eb------------------------------------------------------------|
Bb------------------------------------------------------------|
Gb--7----------------------------7----------------------------|
Db--7(X16)-7------9------5-------7(X16)-7------9------5-------|
Ab--5------7(X16)-9(x16)-5(x16)--5------7(X16)-9(X16)-5(X16)--|
Eb---------5------7------3--------------5------7------3-------|

Intro Guitar 2:


Eb---------------------------------------------------------------------|
Bb---------------------------------------------------------------------|
Gb-------------9/--11--9/11--14--11--9/11--7--6/7--6/7--6--4--2--4/7---|
Db---------------------------------------------------------------------|
Abx//////////--7/--9---7/9---12--9---7/9---5--4/5--4/5--4--2--0--2/5---|
Ebx//////////----------------------------------------------------------|
  pickslide

Eb------------------------------------------------------------------------|
Bb--------------------------------------------------------7*--------------|
Gb---9/--11--9/11--14--11--9--7--6--6/7--6/7--6/7--9--7------7*-5*----7*--|
Db-----------------------------------------------------------------7*-----|
Ab---7/--9---7/9---12--9---7--5--4--4/5--4/5--4/5--7--5-------------------|
Eb------------------------------------------------------------------------|


Verse 1 Guitar 1:


Eb--------------------------------------------------------------------------------|
Bb--------------------------------------------------------------------------------|
Gb-7-7----------------------------------------7-7---------------------------------|
Db-7-7(X14)-7-7------9-9------555555555555555-7-7(X14)-7-7------9-9------5-5------|
Ab-5-5------7-7(X14)-9-9(X14)-555555555555555-5-5------7-7(X14)-9-9(x14)-5-5(X14)-|
Eb----------5-5------7-7------333333333333333----------5-5------7-7------3-3------|
PM   .        .        .      ............      .        .        .        .


Verse 1 guitar 2:

Eb-------------------------------------------------------|
Bb-------------------------------------------------------|
Gb----------6--14--11-9---6--7--6--7--44446666777799911--|
Db-------------------------------------------------------|
Ab----------4--12--9--7---4--5--4--5--2222444455557779---|
Eb-------------------------------------------------------|

Prechorus guitar 1:

Eb-----------------------------------------------------------------------------|
Bb-----------------------------------------------------------------------------|
Gb--444447-----------7777777-------------444447--------------------------------|
Db--444447-5-5555555-7777777-2-2222222---444447-5-5555555-7-77777777x--|
Ab--222225-5-5555555-5555555-2-2222222---222225-5-5555555-7-77777777x--|
Eb---------3-3333333---------0-0000000----------3-3333333-5-55555555x--|


Prechorus guitar 2


Eb-----------------------------------------------------------------------------|
Bb-----------------------------------------------------------------------------|
Gb-------------------7777777-------------------------------------------|
Db---------5-5555555-7777777-2-2222222----------5-5555555-7-77777777x--|
Ab---------5-5555555-5555555-2-2222222----------5-5555555-7-77777777x--|
Eb---------3-3333333---------0-0000000----------3-3333333-5-55555555x--|


Chorus guitar 1:

Eb---------------------------------------|
Bb---------------------------------------|
Gb--------------------7-777777-----------|
Db--99999999-5-555555-7-777777-7-777777--| play 4 times
Ab--99999999-5-555555-5-555555-7-777777--|
Eb--77777777-3-333333----------5-555555--|

Eb----------------|
Bb----------------|
Gb----------------|
Db---9---7---5----|
Ab---9---7---5----|
Eb---7---5---3----|


Chorus Guitar 2:

Eb------------------------------------------------------------|
Bb------------------------------------------------------------|
Gb--9--7/9--7/9/11-9--7/9--7/9/11-9--7/9--7/9/11--99999999----|
Db------------------------------------------------------------| play 4 times
Ab--7--5/7--5/7/9--7--5/7--5/7/9--7--5/7--5/7/9---77777777----|
Eb------------------------------------------------------------|

Eb----------------|
Bb----------------|
Gb---4---6---7----|
Db----------------|
Ab---2---4---5----|
Eb----------------|


Verse 2 Guitar 1:

Eb----------------------------------------------------------------------------------------|
Bb----------------------------------------------------------------------------------------|
Gb-------7\-------------------7-7---------------------------------------------------------|
Db---555-7\-------------------7-7(X14)-7-7------9-9------5-555555-------------------------|
Ab---555-5\-------------------5-5------7-7(X14)-7-7(X14)-5-555555-x////////////-----------|
Eb---333-------------------------------5-5------7-7------3-333333-x///////////------------|
PM                              .        .        .        ...... pickslide to prechorus then chorus 

Verse 2 guitar 2:

Eb---------------------------------------------------------------------------------------------|
Bb--7*-------7*--------7*----------------------------------------------------------------------|
Gb----7*--5*-------7*-----7*--9-11-9-11-9-11-9-11--7-6-7-6-7-9-6h7p6h7p6h7p6h7p6h7p6h7p6h7p6h7-|
Db--------------7*-----------------------------------------------------------------------------|
Ab----------------------------7-9--7-9--7-9--7-9---5-4-5-4-5-7---------------------------------|
Eb---------------------------------------------------------------------------------------------|

to prechorus then play chorus let final chord of guitar 1 ring while guitar 2 plays this:


Eb---------------------------------------------------------------------------------|
Bb---10-----10-----10-----10-----10---10---10-----10-----10-----10-----10---10-----|
Gb------7-7----7-7----7-7----7-7----7----7----7-7----7-7----7-7----7-7----7----7---|
Db---------------------------------------------------------------------------------|
Ab---------------------------------------------------------------------------------|
Eb---------------------------------------------------------------------------------|


Eb---------------------------------------------------------------------------------|
Bb---10-----10-----10-----10-----10---10---10-----10-----10-----10-----10---10-----|
Gb------7-7----7-7----7-7----7-7----7----7----7-7----7-7----7-7----7-7----7----7---|
Db---------------------------------------------------------------------------------|
Ab---------------------------------------------------------------------------------|
Eb---------------------------------------------------------------------------------|
PM      . .    . .      .    . .    .    .    . .    . .    . .    . .    .    .

Eb---------------------------------------------------------------------------------|
Bb---10-----10-----10-----10-----10---10---10-----10-----10-----10-----10---10-----|
Gb------7-7----7-7----7-7----7-7----7----7----7-7----7-7----7-7----7-7----7----7---|
Db---------------------------------------------------------------------------------|
Ab---------------------------------------------------------------------------------|
Eb---------------------------------------------------------------------------------|
PM      . .    . .    . .    . .    .    .    . .    . .    . .


Bridge Guitar 1:

Eb----------------------|
Bb----------------------|
Gb---------7------------|
Db---9--5--7---9--5--7--| play 4 times
Ab---9--5--5---9--5--7--|
Eb---7--3------7--3--5--|


Bridge Guitar 2:

Eb-------------------------------------------------|
Bb-------------------------------------------------|
Gb---11--7--14---11--7--9---11--7--14---11--7--9---|
Db-------------------------------------------------|
Ab---9---5--12---9---5--7---9---5--12---9---5--7---|
Eb-------------------------------------------------|

Eb--/10----10----10-12--10----9h10p9h10p9h10p9h10--------10----10---------------------|
Bb------10----10-----------10---------------------7-8-10----10----3-5-7h8p7h8p7h8p7h8-|
Gb------------------------------------------------------------------------------------|
Db------------------------------------------------------------------------------------|
Ab------------------------------------------------------------------------------------|
Eb------------------------------------------------------------------------------------|

then both guitars play this:

Eb-------------------------------|
Bb-------------------------------|
Gb--7-9--11-9--12-11-7-14--------|
Db-------------------------------|
Ab--5-7--9--7--10-9--5-12--------|
Eb-------------------------------|

play chorus and let the last chord of guitar 1 ring while guitar 2 fades out with this:

Eb-------------------------------------------------------------------------------------|
Bb----10-----10-----10-----10-----10---10---10-----10-----10-----10-----10---10--------|
Gb-------7-7----7-7----7-7----7-7----7----7----7-7----7-7----7-7----7-7----7----7------|
Db-------------------------------------------------------------------------------------|
Ab-------------------------------------------------------------------------------------|
Eb-------------------------------------------------------------------------------------|
PM       . .    . .    . .    . .    .    .    . .    . .    . .    . .    .    .

keep playing this until you gradually fade out
            
Hard to play? Try these video lessons and learn fast. | Correct




comments powered by Disqus
↑ Back to top | Tablatures and chords are parodies/interpretations of the original songs. You may use it for private study, scholarship, research or language learning purposes only