» » »

Audience Of One Bass tabs (ver.1)

Artists:  A B C D E F G H I J K L M N O P Q R S T U V W X Y Z # 

Audience Of One Bass tabs (ver.1)

Rise Against
Rating:
0/5 (0 votes)

Hard to play? Try these video lessons and learn fast.
                Audience of One
Rise Against
Joe Principe - Bass

Intro – Four bars of nothing then

Gb|------------------|------------------|------------------|------------------|
Db|------------------|------------------|------------------|------------------|
Ab|-5-5-5-5-5-5-5-5--|-5-5-5-5-5-5-5-5--|-0-0-0-0-0-0-0-0--|-0-0-0-0-0-0-0-0--|
Eb|------------------|------------------|------------------|------------------|
    1 + 2 + 3 + 4 +    1 + 2 + 3 + 4 +    1 + 2 + 3 + 4 +    1 + 2 + 3 + 4 +    

Gb|------------------|------------------|------------------|------------------|
Db|------------------|------------------|------------------|------------------|
Ab|-2-2-2-2-2-2-2-2--|-2-2-2-2-2-2-2-2--|------------------|------------------|
Eb|------------------|------------------|-3-3-3-3-3-3-3-3--|-3-3-3-3-3-3-3-3--|
    1 + 2 + 3 + 4 +    1 + 2 + 3 + 4 +    1 + 2 + 3 + 4 +    1 + 2 + 3 + 4 +   

Gb|------------------|------------------|------------------|------------------|
Db|------------------|------------------|------------------|------------------|
Ab|-5-5-5-5-5-5-5-5--|-5-5-5-5-5-5-5-5--|-0-0-0-0-0-0-0-0--|-0-0-0-0-0-0-0-0--|
Eb|------------------|------------------|------------------|------------------|
    1 + 2 + 3 + 4 +    1 + 2 + 3 + 4 +    1 + 2 + 3 + 4 +    1 + 2 + 3 + 4 +    

Gb|------------------|------------------|------------------|------------------|
Db|------------------|------------------|------------------|------------------|
Ab|-2-2-2-2-2-2-2-2--|-2-2-2-2-2-2-2-2--|------------------|------------------|
Eb|------------------|------------------|-3-3-3-3-3-3-3-3--|-3-3-3-3-3-3-3-3--|
    1 + 2 + 3 + 4 +    1 + 2 + 3 + 4 +    1 + 2 + 3 + 4 +    1 + 2 + 3 + 4 +   

Verse

Gb|------------------|------------------|------------------|------------------|
Db|------------------|------------------|------------------|------------------|
Ab|-5-5-5-5-5-5-5-5--|-5-5-5-5-5-5-5-5--|-0-0-0-0-0-0-0-0--|-0-0-0-0-0-0-0-0--|
Eb|------------------|------------------|------------------|------------------|
    1 + 2 + 3 + 4 +    1 + 2 + 3 + 4 +    1 + 2 + 3 + 4 +    1 + 2 + 3 + 4 +    

Gb|------------------|------------------|------------------|------------------|
Db|------------------|------------------|------------------|------------------|
Ab|-2-2-2-2-2-2-2-2--|-2-2-2-2-2-2-2-2--|------------------|---------------5--|
Eb|------------------|------------------|-3-3-3-3-3-3-3-3--|-3-3-3-3-3-3-3----|
    1 + 2 + 3 + 4 +    1 + 2 + 3 + 4 +    1 + 2 + 3 + 4 +    1 + 2 + 3 + 4 +   

Gb|------------------|------------------|------------------|------------------|
Db|------------------|------------------|------------------|------------------|
Ab|---5-5-5-5-5-5-5--|-5-5-5-5-5-5-5-5--|-0-0-0-0-0-0-0-0--|-0-0-0-0-0-0-0-0--|
Eb|------------------|------------------|------------------|------------------|
    1 + 2 + 3 + 4 +    1 + 2 + 3 + 4 +    1 + 2 + 3 + 4 +    1 + 2 + 3 + 4 +    

Gb|------------------|------------------|------------------|------------------|
Db|------------------|------------------|------------------|------------------|
Ab|-2-2-2-2-2-2-2-2--|-2-2-2-2-2-2-2-2--|------------------|------------------|
Eb|------------------|------------------|-3-3-3-3-3-3-3-3--|-3-3-3-3-3-3-3-3--|
    1 + 2 + 3 + 4 +    1 + 2 + 3 + 4 +    1 + 2 + 3 + 4 +    1 + 2 + 3 + 4 +   

Pre-Chorus


Gb|----------------------------------|----------------------------------|
Db|----------------------------------|----------------------------------|
Ab|-2--------------------------------|-----------------------------5----|
Eb|-----------------------------3----|-----3---3---3-3-3---3---3--------|
    1 + + + 2 + + + 3 + + + 4 + + +    1 + + + 2 + + + 3 + + + 4 + + + 

Gb|----------------------------------|----------------------------------|
Db|----------------------------------|----------------------------------|
Ab|-----5---5---5-5-5---5---5--------|----------------------------------|
Eb|-----------------------------0----|-----0---0---0---0---0---0---0----|
    1 + + + 2 + + + 3 + + + 4 + + +    1 + + + 2 + + + 3 + + + 4 + + + 

Gb|----------------------------------|----------------------------------|
Db|----------------------------------|----------------------------------|
Ab|-2---2---2-------0---5---0--------|-----------------------------0----|
Eb|-----------------------------3----|-----3---3---3-3-3---3---3--------|
    1 + + + 2 + + + 3 + + + 4 + + +    1 + + + 2 + + + 3 + + + 4 + + + 

Gb|----------------------------------|----------------------------------|
Db|----------------------------------|----------------------------------|
Ab|-----0---0---0-0-0---0---0---0----|-0---------------------------2----|
Eb|----------------------------------|----------------------------------|
    1 + + + 2 + + + 3 + + + 4 + + +    1 + + + 2 + + + 3 + + + 4 + + + 

Chorus

Gb|------------------|------------------|------------------|------------------|
Db|------------------|------------------|------------------|------------------|
Ab|---2-2-2-2-2-2----|---------------5--|---5-5-5-5-5-5-0--|-0-0-0-0-0-0-0-0--|
Eb|---------------3--|---3-3-3-3-3-3----|------------------|------------------|
    1 + 2 + 3 + 4 +    1 + 2 + 3 + 4 +    1 + 2 + 3 + 4 +    1 + 2 + 3 + 4 +  

Gb|------------------|------------------|------------------|------------------|
Db|------------------|------------------|------------------|------------------|
Ab|-2-2-2-2-2-2-2----|---------------5--|---5-5-5-5-5-5-0--|---0-0-0-0-0-0-2--|
Eb|---------------3--|---3-3-3-3-3-3----|------------------|------------------|
    1 + 2 + 3 + 4 +    1 + 2 + 3 + 4 +    1 + 2 + 3 + 4 +    1 + 2 + 3 + 4 +    

Gb|------------------|------------------|------------------|------------------|
Db|------------------|------------------|------------------|------------------|
Ab|---2-2-2-2-2-2----|---------------5--|---5-5-5-5-5-5-0--|---0-0-0-0-0-0-0--|
Eb|---------------3--|---3-3-3-3-3-3----|------------------|------------------|
    1 + 2 + 3 + 4 +    1 + 2 + 3 + 4 +    1 + 2 + 3 + 4 +    1 + 2 + 3 + 4 +   

Gb|------------------|------------------|------------------|------------------|
Db|------------------|------------------|------------------|------------------|
Ab|-2-2-2-2-2-2-2----|---------------5--|---5-5-5-5-5-5-0--|---0-0-0-0-0-0-0--|
Eb|---------------3--|---3-3-3-3-3-3----|------------------|------------------|
    1 + 2 + 3 + 4 +    1 + 2 + 3 + 4 +    1 + 2 + 3 + 4 +    1 + 2 + 3 + 4 +     

Gb|-------------|
Db|-------------|
Ab|-2-2-2-0-0-0-|
Eb|-------------|
    1 2 3 4 5 6   

Interlude

Gb|------------------|------------------|
Db|------------------|------------------|
Ab|------------------|---------5-0-0-5--|
Eb|-3----------------|------------------|
    1 + 2 + 3 + 4 +    1 + 2 + 3 + 4 +       

Verse

Gb|------------------|------------------|------------------|------------------|
Db|------------------|------------------|------------------|------------------|
Ab|-5-5-5-5-5-5-5-5--|-5-5-5-5-5-5-5-5--|-0-0-0-0-0-0-0-0--|-0-0-0-0-0-0-0-0--|
Eb|------------------|------------------|------------------|------------------|
    1 + 2 + 3 + 4 +    1 + 2 + 3 + 4 +    1 + 2 + 3 + 4 +    1 + 2 + 3 + 4 +    

Gb|------------------|------------------|------------------|------------------|
Db|------------------|------------------|------------------|------------------|
Ab|-2-2-2-2-2-2-2-2--|-2-2-2-2-2-2-2-2--|------------------|---------------5--|
Eb|------------------|------------------|-3-3-3-3-3-3-3-3--|-3-3-3-3-3-3-3----|
    1 + 2 + 3 + 4 +    1 + 2 + 3 + 4 +    1 + 2 + 3 + 4 +    1 + 2 + 3 + 4 +   

Gb|------------------|------------------|------------------|------------------|
Db|------------------|------------------|------------------|------------------|
Ab|---5-5-5-5-5-5-5--|-5-5-5-5-5-5-5-5--|-0-0-0-0-0-0-0-0--|-0-0-0-0-0-0-0-0--|
Eb|------------------|------------------|------------------|------------------|
    1 + 2 + 3 + 4 +    1 + 2 + 3 + 4 +    1 + 2 + 3 + 4 +    1 + 2 + 3 + 4 +    

Gb|------------------|------------------|------------------|------------------|
Db|------------------|------------------|------------------|------------------|
Ab|-2-2-2-2-2-2-2-2--|-2-2-2-2-2-2-2-2--|------------------|------------------|
Eb|------------------|------------------|-3-3-3-3-3-3-3-3--|-3-3-3-3-3-3-3-3--|
    1 + 2 + 3 + 4 +    1 + 2 + 3 + 4 +    1 + 2 + 3 + 4 +    1 + 2 + 3 + 4 +   

Pre-Chorus


Gb|----------------------------------|----------------------------------|
Db|----------------------------------|----------------------------------|
Ab|-2--------------------------------|-----------------------------5----|
Eb|-----------------------------3----|-----3---3---3-3-3---3---3--------|
    1 + + + 2 + + + 3 + + + 4 + + +    1 + + + 2 + + + 3 + + + 4 + + + 

Gb|----------------------------------|----------------------------------|
Db|----------------------------------|----------------------------------|
Ab|-----5---5---5-5-5---5---5--------|----------------------------------|
Eb|-----------------------------0----|-----0---0---0---0---0---0---0----|
    1 + + + 2 + + + 3 + + + 4 + + +    1 + + + 2 + + + 3 + + + 4 + + + 

Gb|----------------------------------|----------------------------------|
Db|----------------------------------|----------------------------------|
Ab|-2---2---2-------0---5---0--------|-----------------------------0----|
Eb|-----------------------------3----|-----3---3---3-3-3---3---3--------|
    1 + + + 2 + + + 3 + + + 4 + + +    1 + + + 2 + + + 3 + + + 4 + + + 

Gb|----------------------------------|----------------------------------|
Db|----------------------------------|----------------------------------|
Ab|-----0---0---0-0-0---0---0---0----|-0---------------------------2----|
Eb|----------------------------------|----------------------------------|
    1 + + + 2 + + + 3 + + + 4 + + +    1 + + + 2 + + + 3 + + + 4 + + + 

Chorus

Gb|------------------|------------------|------------------|------------------|
Db|------------------|------------------|------------------|------------------|
Ab|---2-2-2-2-2-2----|---------------5--|---5-5-5-5-5-5-0--|-0-0-0-0-0-0-0-0--|
Eb|---------------3--|---3-3-3-3-3-3----|------------------|------------------|
    1 + 2 + 3 + 4 +    1 + 2 + 3 + 4 +    1 + 2 + 3 + 4 +    1 + 2 + 3 + 4 +  

Gb|------------------|------------------|------------------|------------------|
Db|------------------|------------------|------------------|------------------|
Ab|-2-2-2-2-2-2-2----|---------------5--|---5-5-5-5-5-5-0--|---0-0-0-0-0-0-2--|
Eb|---------------3--|---3-3-3-3-3-3----|------------------|------------------|
    1 + 2 + 3 + 4 +    1 + 2 + 3 + 4 +    1 + 2 + 3 + 4 +    1 + 2 + 3 + 4 +    

Gb|------------------|------------------|------------------|------------------|
Db|------------------|------------------|------------------|------------------|
Ab|---2-2-2-2-2-2----|---------------5--|---5-5-5-5-5-5-0--|---0-0-0-0-0-0-0--|
Eb|---------------3--|---3-3-3-3-3-3----|------------------|------------------|
    1 + 2 + 3 + 4 +    1 + 2 + 3 + 4 +    1 + 2 + 3 + 4 +    1 + 2 + 3 + 4 +   

Gb|------------------|------------------|------------------|------------------|
Db|------------------|------------------|------------------|------------------|
Ab|-2-2-2-2-2-2-2----|---------------5--|---5-5-5-5-5-5-0--|---0-0-0-0-0-0-0--|
Eb|---------------3--|---3-3-3-3-3-3----|------------------|------------------|
    1 + 2 + 3 + 4 +    1 + 2 + 3 + 4 +    1 + 2 + 3 + 4 +    1 + 2 + 3 + 4 +     

Gb|-------------|
Db|-------------|
Ab|-2-2-2-0-0-0-|
Eb|-------------|
    1 2 3 4 5 6   

Interlude

Gb|------------------|------------------|------------------|------------------|
Db|------------------|------------------|------------------|------------------|
Ab|------------------|------------------|------------------|------------------|
Eb|-3----------------|------------------|------------------|------------------|
    1 + 2 + 3 + 4 +    1 + 2 + 3 + 4 +    1 + 2 + 3 + 4 +    1 + 2 + 3 + 4 +   

Gb|------------------|------------------|------------------|------------------|
Db|------------------|------------------|------------------|------------------|
Ab|-2-----------5----|------------------|-2-----------0----|------------------|
Eb|-------3----------|------------------|-------3----------|------------------|
    1 + 2 + 3 + 4 +    1 + 2 + 3 + 4 +    1 + 2 + 3 + 4 +    1 + 2 + 3 + 4 +   

Gb|------------------|------------------|------------------|------------------|
Db|------------------|------------------|------------------|------------------|
Ab|-2-----------5----|-------------7----|-9-----10----7----|------------------|
Eb|-------3----------|------------------|------------------|------------------|
    1 + 2 + 3 + 4 +    1 + 2 + 3 + 4 +    1 + 2 + 3 + 4 +    1 + 2 + 3 + 4 +   

Bridge

Gb|------------------|------------------|------------------|------------------|
Db|-------------7----|------------------|------------------|------------------|
Ab|-2-----------5----|------------------|-2-----------0----|------------------|
Eb|-------3----------|------------------|-------3----------|------------------|
    1 + 2 + 3 + 4 +    1 + 2 + 3 + 4 +    1 + 2 + 3 + 4 +    1 + 2 + 3 + 4 +   

Gb|------------------|------------------|------------------|------------------|
Db|------------------|------------------|------------------|------------------|
Ab|-2-----------5----|-------------7----|-9-----10----7----|------------------|
Eb|-------3----------|------------------|------------------|------------------|
    1 + 2 + 3 + 4 +    1 + 2 + 3 + 4 +    1 + 2 + 3 + 4 +    1 + 2 + 3 + 4 +   

Gb|------------------|------------------|------------------|------------------|
Db|------------------|------------------|------------------|------------------|
Ab|-2-----------5----|------------------|-2-----------0----|------------------|
Eb|-------3----------|------------------|-------3----------|------------------|
    1 + 2 + 3 + 4 +    1 + 2 + 3 + 4 +    1 + 2 + 3 + 4 +    1 + 2 + 3 + 4 +   

Gb|------------------|------------------|------------------|------------------|
Db|------------------|------------------|------------------|------------------|
Ab|-2-----------5----|-------------7----|-9-----10----7----|------------------|
Eb|-------3----------|------------------|------------------|------------------|
    1 + 2 + 3 + 4 +    1 + 2 + 3 + 4 +    1 + 2 + 3 + 4 +    1 + 2 + 3 + 4 +   

Gb|------------------|------------------|------------------|------------------|
Db|------------------|------------------|------------------|------------------|
Ab|------------------|------------------|------------------|-0-------------2--|
Eb|-3-----3----------|-3-----3----------|-3-----3-----3----|------------------|
    1 + 2 + 3 + 4 +    1 + 2 + 3 + 4 +    1 + 2 + 3 + 4 +    1 + 2 + 3 + 4 +

Chorus

Gb|------------------|------------------|------------------|------------------|
Db|------------------|------------------|------------------|------------------|
Ab|---2-2-2-2-2-2----|---------------5--|---5-5-5-5-5-5-0--|-0-0-0-0-0-0-0-0--|
Eb|---------------3--|---3-3-3-3-3-3----|------------------|------------------|
    1 + 2 + 3 + 4 +    1 + 2 + 3 + 4 +    1 + 2 + 3 + 4 +    1 + 2 + 3 + 4 +  

Gb|------------------|------------------|------------------|------------------|
Db|------------------|------------------|------------------|------------------|
Ab|-2-2-2-2-2-2-2----|---------------5--|---5-5-5-5-5-5/12-|---1210109-9-7-2--|
Eb|---------------3--|---3-3-3-3-3-3----|------------------|------------------|
    1 + 2 + 3 + 4 +    1 + 2 + 3 + 4 +    1 + 2 + 3 + 4 +    1 + 2 + 3 + 4 +    

Gb|------------------|------------------|------------------|------------------|
Db|------------------|------------------|------------------|------------------|
Ab|---2-2-2-2-2-2----|---------------5--|---5-5-5-5-5-5-0--|---0-0-0-0-0-0-0--|
Eb|---------------3--|---3-3-3-3-3-3----|------------------|------------------|
    1 + 2 + 3 + 4 +    1 + 2 + 3 + 4 +    1 + 2 + 3 + 4 +    1 + 2 + 3 + 4 +   

Gb|------------------|------------------|------------------|------------------|
Db|------------------|------------------|------------------|------------------|
Ab|-2-2-2-2-2-2-2----|---------------5--|---5-5-5-5-5-5-0--|---0-0-0-0-0-0-0--|
Eb|---------------3--|---3-3-3-3-3-3----|------------------|------------------|
    1 + 2 + 3 + 4 +    1 + 2 + 3 + 4 +    1 + 2 + 3 + 4 +    1 + 2 + 3 + 4 +     

Gb|-------------|
Db|-------------|
Ab|-2-2-2-0-0-0-|
Eb|-------------|
    1 2 3 4 5 6   

Outro

Gb|------------------|------------------|------------------|------------------|
Db|------------------|------------------|------------------|------------------|
Ab|------------------|------------------|------------------|------------------|
Eb|-3----------------|------------------|------------------|------------------|
    1 + 2 + 3 + 4 +    1 + 2 + 3 + 4 +    1 + 2 + 3 + 4 +    1 + 2 + 3 + 4 +   
   
Gb|------------------|------------------|------------------|------------------|
Db|------------------|------------------|------------------|------------------|
Ab|-2-----------5----|------------------|------------------|------------------|
Eb|-------3----------|------------------|------------------|------------------|
    1 + 2 + 3 + 4 +    1 + 2 + 3 + 4 +    1 + 2 + 3 + 4 +    1 + 2 + 3 + 4 + 
            
Hard to play? Try these video lessons and learn fast. | Correct




comments powered by Disqus
↑ Back to top | Tablatures and chords are parodies/interpretations of the original songs. You may use it for private study, scholarship, research or language learning purposes only