» » »

Rise Against, Approaching Curve Tabs (ver.1)

Artists:  A B C D E F G H I J K L M N O P Q R S T U V W X Y Z # 

Approaching Curve Tabs (ver.1)

Rise Against Tabs
 Rating:
4/5 (21 vote)
Approaching Curve lessons Tabs too difficult? Try these video lessons and learn fast
1
                Artist : Rise Against
Song : The Approaching Curve
Album : The Sufferer & The Witness
Tuning : Standard

. = Palm Muted

Intro 
|------------------------------------------------------------------------------------------------------------------|
|------------------------------------------------------------------------------------------------------------------|
|-6--6-6-6-6-6-6-6-6-6-6-6-6-6-6-6-6-6-6-6-6-6-6-6-5-5-5-5-5-5-5-5-6-6-6-6-6-6-6-6-6-6-6-6-6-6-6-6-6-6-6-6-6-6-6-5-|
|-8--8-8-8-8-8-8-8-8-8-8-8-8-8-8-8-6-6-6-6-6-6-6-6-6-6-6-6-6-6-6-6-4-4-4-4-4-4-4-4-4-4-4-4-4-4-4-4-4-4-4-4-4-4-4-6-|
|------------------------------------------------------------------4-4-4-4-4-4-4-4-4-4-4-4-4-4-4-4-4-4-4-4-4-4-4-6-|
|------------------------------------------------------------------------------------------------------------------|

Verse ( Rhythm )
|-----------------------------------------|x3|-----------------------------------------|x1       Play
|-----------------------------------------|  |-----------------------------------------|         The
|-----------------------------------------|  |-----------------------------------------|         whole
|-33-3-33-3-33-3-33-3---------------------|  |-----------------------------------------|         thing
|-11-1-11-1-11-1-11-1-66-6-66-6-66-6-66-6-|  |-44-4-44-4-44-4-44-4-44-4-44-4-44-4-44-4-|         twice
|---------------------44-4-44-4-44-4-44-4-|  |-22-2-22-2-22-2-22-2-22-2-22-2-22-2-22-2-|
  ..   ..   ..   ..   ..   ..   ..   ..        ..   ..   ..   ..   ..   ..   ..   .. 

|------------------|x3|--------------------------------|x1  play    |-------------------|
|------------------|  |--------------------------------|    the     |-------------------|
|-6---11---10--5-8-|  |-666666666666666666666666666666-|    whole   |-13-13-13-13-13-13-|
|-x---x----x---x-x-|  |-xxxxxxxxxxxxxxxxxxxxxxxxxxxxxx-|    thing   |-x--x--x--x--x--x--|
|-4---9----8---3-6-|  |-444444444444444444444444444444-|    twice   |-11-11-11-11-11-11-|
|------------------|  |--------------------------------|    then->  |-------------------|

Chorus ( rhythm )
|-------------------------------------------------------------------------------------------------
|-------------------------------------------------------------------------------------------------
|-------------------------------------------------------------------------------------------------
|-6-6-6-6-6-6-------------------------------------6-6-6-6-6-6-------------------------------------
|-4-4-4-4-4-4-6-6-6-6-6-6-8-8-8-8-8-8-8-8-8-8-8-8-4-4-4-4-4-4-6-6-6-6-6-6-8-8-8-8-8-8-8-8-8-8-8-8-
|-------------4-4-4-4-4-4-6-6-6-6-6-6-6-6-6-6-6-6-------------4-4-4-4-4-4-6-6-6-6-6-6-6-6-6-6-6-6-

--------------------------------------------------------------------------------------------------|
--------------------------------------------------------------------------------------------------|
--------------------------------------------------------------------------------------------------|
-6-6-6-6-6-6-------------------------------------6-6-6-6-6-6--------------------------------------|
-4-4-4-4-4-4-6-6-6-6-6-6-3-3-3-3-3-3-4-4-4-4-4-4-4-4-4-4-4-4-6-6-6-6-6-6-8------------------------|
-------------4-4-4-4-4-4-1-1-1-1-1-1-2-2-2-2-2-2-------------4-4-4-4-4-4-6------------------------|

( lead )
|----------------------|x4
|----------------------|
|-6----13----8----10---|
|-x----x-----x----x----|
|-4----11----6----8----|
|----------------------|

Verse ( Rhythm )
|-----------------------------------------|x3|-----------------------------------------|x1       Play
|-----------------------------------------|  |-----------------------------------------|         The
|-----------------------------------------|  |-----------------------------------------|         whole
|-33-3-33-3-33-3-33-3---------------------|  |-----------------------------------------|         thing
|-11-1-11-1-11-1-11-1-66-6-66-6-66-6-66-6-|  |-44-4-44-4-44-4-44-4-44-4-44-4-44-4-44-4-|         twice
|---------------------44-4-44-4-44-4-44-4-|  |-22-2-22-2-22-2-22-2-22-2-22-2-22-2-22-2-|
  ..   ..   ..   ..   ..   ..   ..   ..        ..   ..   ..   ..   ..   ..   ..   .. 

|------------------|x3|--------------------------------|x1  play    |-------------------|
|------------------|  |--------------------------------|    the     |-------------------|
|-6---11---10--5-8-|  |-666666666666666666666666666666-|    whole   |-13-13-13-13-13-13-|
|-x---x----x---x-x-|  |-xxxxxxxxxxxxxxxxxxxxxxxxxxxxxx-|    thing   |-x--x--x--x--x--x--|
|-4---9----8---3-6-|  |-444444444444444444444444444444-|    once    |-11-11-11-11-11-11-|
|------------------|  |--------------------------------|    then->  |-------------------|

Chorus ( rhythm )
|-------------------------------------------------------------------------------------------------
|-------------------------------------------------------------------------------------------------
|-------------------------------------------------------------------------------------------------
|-6-6-6-6-6-6-------------------------------------6-6-6-6-6-6-------------------------------------
|-4-4-4-4-4-4-6-6-6-6-6-6-8-8-8-8-8-8-8-8-8-8-8-8-4-4-4-4-4-4-6-6-6-6-6-6-8-8-8-8-8-8-8-8-8-8-8-8-
|-------------4-4-4-4-4-4-6-6-6-6-6-6-6-6-6-6-6-6-------------4-4-4-4-4-4-6-6-6-6-6-6-6-6-6-6-6-6-

--------------------------------------------------------------------------------------------------|
--------------------------------------------------------------------------------------------------|
--------------------------------------------------------------------------------------------------|
-6-6-6-6-6-6-------------------------------------6-6-6-6-6-6--------------------------------------|
-4-4-4-4-4-4-6-6-6-6-6-6-3-3-3-3-3-3-4-4-4-4-4-4-4-4-4-4-4-4-6-6-6-6-6-6-8------------------------|
-------------4-4-4-4-4-4-1-1-1-1-1-1-2-2-2-2-2-2-------------4-4-4-4-4-4-6------------------------|

( lead )
|----------------------|x4
|----------------------|
|-6----13----8----10---|
|-x----x-----x----x----|
|-4----11----6----8----|
|----------------------|

Interlude ( lead )
|-------------------------------------------|x4|-----|
|-------------------------------------------|  |-----|
|-------------------------------------------|  |-8-5-|
|-------------------------------------------|  |-----|
|------4-4-4---3-3-4-4------4-4-4----3-3----|  |-----|
|-6-6-6-----2-2--------4-4-4------2-2---4-4-|  |-----|
  . . .. . .. .. . . . . . .. . . . .. .. .
( rhythm )
|-------------------------------------------|x2|------------|x7|-------|
|-------------------------------------------|  |------------|  |-------|
|-------------------------------------------|  |------------|  |-------|
|-------------------------------------------|  |------------|  |-10----|
|-------------------------------------------|  |----8-8-9-9-|  |----11-|
|-------------------------------------------|  |-6-6--------|  |-------|
                                                 . .. . . .
( lead )
|-----------------------------|x3|-----| |-------------------------------------------------------------------------|
|-----------------------------|  |-----| |-------------------------------------------------------------------------|
|-----------------------------|  |-8-5-| |-------------------------------------------------------------------------|
|-------------------------6---|  |-----| |-------------------------------------------------------------------------|
|-8-8-8-4-4-4-6-6-6-4-4-4-4-6-|  |-----| |-8-8-8-4-4-4-6-6-6-4-4-4-4-4-4-4-4-4-4-4-4-4-4-4-4-4-4-4-4-4-4-4-4-4-4-4-|
|-6-6-6-2-2-2-4-4-4-2-2-2---4-|  |-----| |-6-6-6-2-2-2-4-4-4-2-2-2-2-2-2-2-2-2-2-2-2-2-2-2-2-2-2-2-2-2-2-2-2-2-2-2-|

( rhythm )
|-----------------------------|x3|------| |-------------------------------------------------------------------------|
|-----------------------------|  |------| |-------------------------------------------------------------------------|
|-----------------------------|  |------| |-------------------------------------------------------------------------|
|-------------------------6---|  |-10---| |-------------------------------------------------------------------------|
|-8-8-8-4-4-4-6-6-6-4-4-4-4-6-|  |---11-| |-8-8-8-4-4-4-6-6-6-4-4-4-4-4-4-4-4-4-4-4-4-4-4-4-4-4-4-4-4-4-4-4-4-4-4-4-|
|-6-6-6-2-2-2-4-4-4-2-2-2---4-|  |------| |-6-6-6-2-2-2-4-4-4-2-2-2-2-2-2-2-2-2-2-2-2-2-2-2-2-2-2-2-2-2-2-2-2-2-2-2-|

Chorus ( rhythm )
|-------------------------------------------------------------------------------------------------
|-------------------------------------------------------------------------------------------------
|-------------------------------------------------------------------------------------------------
|-6-6-6-6-6-6-------------------------------------6-6-6-6-6-6-------------------------------------
|-4-4-4-4-4-4-6-6-6-6-6-6-8-8-8-8-8-8-8-8-8-8-8-8-4-4-4-4-4-4-6-6-6-6-6-6-8-8-8-8-8-8-8-8-8-8-8-8-
|-------------4-4-4-4-4-4-6-6-6-6-6-6-6-6-6-6-6-6-------------4-4-4-4-4-4-6-6-6-6-6-6-6-6-6-6-6-6-

--------------------------------------------------------------------------------------------------|
--------------------------------------------------------------------------------------------------|
--------------------------------------------------------------------------------------------------|
-6-6-6-6-6-6-------------------------------------6-6-6-6-6-6--------------------------------------|
-4-4-4-4-4-4-6-6-6-6-6-6-3-3-3-3-3-3-4-4-4-4-4-4-4-4-4-4-4-4-6-6-6-6-6-6-8------------------------|
-------------4-4-4-4-4-4-1-1-1-1-1-1-2-2-2-2-2-2-------------4-4-4-4-4-4-6------------------------|

( lead )
|----------------------|x4
|----------------------|
|-6----13----8----10---|
|-x----x-----x----x----|
|-4----11----6----8----|
|----------------------|

Outro
|------------------------------------------------------------------------------------------------------------------|
|------------------------------------------------------------------------------------------------------------------|
|-6--6-6-6-6-6-6-6-6-6-6-6-6-6-6-6-6-6-6-6-6-6-6-6-5-5-5-5-5-5-5-5-6-6-6-6-6-6-6-6-6-6-6-6-6-6-6-6-6-6-6-6-6-6-6-5-|
|-8--8-8-8-8-8-8-8-8-8-8-8-8-8-8-8-6-6-6-6-6-6-6-6-6-6-6-6-6-6-6-6-4-4-4-4-4-4-4-4-4-4-4-4-4-4-4-4-4-4-4-4-4-4-4-6-|
|------------------------------------------------------------------4-4-4-4-4-4-4-4-4-4-4-4-4-4-4-4-4-4-4-4-4-4-4-6-|
|------------------------------------------------------------------------------------------------------------------|
            
Submit corrections

comments powered by Disqus
↑ Back to top | Rise Against Tabs for Approaching Curve. Lyrics for acoustic guitar and electric guitar. 1 Tablatures and chords are parodies/interpretations of the original songs. You may use it for private study, scholarship, research or language learning purposes only