» » »

Approaching Curve Bass tabs (ver.1)

Artists:  A B C D E F G H I J K L M N O P Q R S T U V W X Y Z # 

Approaching Curve Bass tabs (ver.1)

Rise Against
Rating:
5/5 (4 votes)

Hard to play? Try these video lessons and learn fast.
                --------------------------------------------------------------------------------
--------------------------------------------------------------------------------


Tuning: Standard (EADG)
Tempo:  150 during verse, 65 during chorus and bridge pt. 2, 90 during bridge pt. 1
Scale:  C# Major

There are a lot of tempo changes in this song, it gets a little confusing sometimes.
I suggest reading along with the tab while listening to the song before attempting to play it.
The timing also changes from 4/4 to 3/4 for the bridge pt. 1.
Anyways, enjoy and rate :D

Play nothing during the Intro

Verse

G|----------------|----------------|----------------|----------------|
D|----------------|----------------|----------------|----------------|
A|----------------|----------------|----------------|----------------|
E|6666666666666666|4444444444444444|6666666666666666|4444444444444444|

G|----------------|----------------|----------------|----------------|
D|----------------|----------------|----------------|----------------|
A|----------------|----------------|----------------|9999999999999999|
E|6666666666666666|4444444444444444|2222222222222222|----------------|

G|----------------|----------------|----------------|----------------|
D|----------------|----------------|----------------|----------------|
A|----------------|----------------|----------------|----------443344|
E|6666666666666666|4444444444444444|6666666666666666|4444444444------|

G|----------------|----------------|----------------|------------------------|
D|----------------|----------------|----------------|------------6-4-3-4-3-1-|
A|----------------|----------------|----------------|9-9-9-9-9-9-------------|
E|6666666666666666|4444444444444444|2222222222222222|------------------------|

First Chorus

G|------------------------|------------------------|------------------------|------------------------|
D|------------------------|------------------------|------------------------|------------------------|
A|4-4-4-4-4-4-------------|------------------------|4-4-4-4-4-4-------------|------------------------|
E|------------4-4-4-4-4-4-|6-6-6-6-6-6-6-6-6-6-6-6-|------------4-4-4-4-4-4-|6-6-6-6-6-6-6-6-6-6-6-6-|

G|------------------------|------------------------|------------------------|------------------------|
D|------------------------|------------------------|------------------------|------------------------|
A|4-4-4-4-4-4-------------|------------------------|4-4-4-4-4-4-------------|------------------------|
E|------------4-4-4-4-4-4-|1-1-1-1-1-1-2-2-2-2-2-2-|------------4-4-4-4-4-4-|6~----------------------|

Verse

G|----------------|----------------|----------------|----------------|
D|----------------|----------------|----------------|----------------|
A|----------------|----------------|----------------|----------------|
E|6666666666666666|4444444444444444|6666666666666666|4444444444444444|

G|----------------|----------------|----------------|----------------|
D|----------------|----------------|----------------|----------------|
A|----------------|----------------|----------------|9999999999999999|
E|6666666666666666|4444444444444444|2222222222222222|----------------|

G|----------------|----------------|----------------|----------------|
D|----------------|----------------|----------------|----------------|
A|----------------|----------------|----------------|----------443344|
E|6666666666666666|4444444444444444|6666666666666666|4444444444------|

G|----------------|----------------|----------------|------------------------|
D|----------------|----------------|----------------|------------6-4-3-4-3-1-|
A|----------------|----------------|----------------|9-9-9-9-9-9-------------|
E|6666666666666666|4444444444444444|2222222222222222|------------------------|

Second Chorus

G|------------------------|------------------------|------------------------|------------------------|
D|------------------------|------------------------|------------------------|------------------------|
A|4-4-4-4-4-4-------------|------------------------|4-4-4-4-4-4-------------|------------------------|
E|------------4-4-4-4-4-4-|6-6-6-6-6-6-6-6-6-6-6-6-|------------4-4-4-4-4-4-|6-6-6-6-6-6-6-6-6-6-6-6-|

G|------------------------|------------------------|------------------------|
D|------------------------|------------------------|------------------------|
A|4-4-4-4-4-4-6-6-6-6-6-6-|8-8-8-8-6-8-9-9-9-9-9-9-|4-4-4-4-4-4-------------|
E|------------------------|------------------------|------------4-4-4-4-4-4-|

Bridge Pt. 1(Rest first 4 bars, then play this)

G|------------------|------------------|------------------|------------------|
D|------------------|------------------|------------------|------------------|
A|------------------|------------------|------------------|------------------|
E|6-6-----1-2-2-----|4-4-----1-2-2---4-|6-6-----1-2-2-----|4-4-----1-2-------|

Bridge Pt. 2

G|------------------------|------------------------|------------------------|
D|------------------------|------------------------|------------------------|
A|------------------------|------------------------|------------------------|
E|6-6-6-2-2-2-4-4-4-2-2-2-|6-6-6-2-2-2-4-4-4-2-2-2-|6-6-6-2-2-2-4-4-4-2-----|

G|------------------------|------------------------|------------------------|
D|------------------------|------------------------|------------6-4-3-4-3-1-|
A|------------------------|------------------------|9-9-9-9-9-9-------------|
E|6-6-6-2-2-2-4-4-4-2-2-2-|2-2-2-2-2-2-2-2-2-2-2-2-|------------------------|

Final Chorus

G|------------------------|------------------------|------------------------|------------------------|
D|------------------------|------------------------|------------------------|------------------------|
A|4-4-4-4-4-4-------------|------------------------|4-4-4-4-4-4-------------|------------------------|
E|------------4-4-4-4-4-4-|6-6-6-6-6-6-6-6-6-6-6-6-|------------4-4-4-4-4-4-|6-6-6-6-6-6-6-6-6-6-6-6-|

G|------------------------|------------------------|------------------------|------------------------|
D|------------------------|------------------------|------------------------|------------------------|
A|4-4-4-4-4-4-6-6-6-6-6-6-|8-8-8-8-6-8-9-9-9-9-8-6-|4-4-4-4-4-4-------------|------------------------|
E|------------------------|------------------------|------------4-4-4-4-4-4-|6~----------------------|



| /  slide up
| \  slide down
| h  hammer-on
| p  pull-off
| ~  hold note
|( ) ghost note
| +  harmonic
| x  mute note
============================================================================
            
Hard to play? Try these video lessons and learn fast. | Correct




comments powered by Disqus
↑ Back to top | Tablatures and chords are parodies/interpretations of the original songs. You may use it for private study, scholarship, research or language learning purposes only