» » »

Right Away Great Captain, Cause Im So Scared Of Dying Tabs (ver.1)

Artists:  A B C D E F G H I J K L M N O P Q R S T U V W X Y Z # 

Cause Im So Scared Of Dying Tabs (ver.1)

Right Away Great Captain Tabs
 Rating:
4/5 (4 votes)
Cause Im So Scared Of Dying lessons Tabs too difficult? Try these video lessons and learn fast
                Fairly easy song. very fun. from what I know this is the first tab for this song 
so not the best. but around 99% right. :)


e|--------------------------------------------------------------------|
B|----------9-6---9-6---9-6---9-6---9-6---9-6---9-6-------------------|
G|-------------------------------6-----6-----6-----9h10-8-5\3---------|
D|-3-5-3-6-----6-----6-----6------------------------------------------|
A|--------------------------------------------------------------------|
E|--------------------------------------------------------------------|

e|--------------------------------------------------------------------|
B|----9-6---9-6---9-6---9-6---9-6---9-6---9-6---9-6-------------------|
G|-------------------------6-----6-----6-----6------------------------|  x3
D|-6-----6-----6-----6------------------------------------------------|
A|--------------------------------------------------------------------|
E|--------------------------------------------------------------------|

e|----4-----4---------------------------------------------------------|
B|------6-----6---9-6-------------------------------------------------|
G|-------------6-----9h10-8-5\3---------------------------------------|
D|-3-----3------------------------------------------------------------|
A|--------------------------------------------------------------------|
E|--------------------------------------------------------------------|

e|------------4-----------------4-----4-------------------------------|
B|----9-6-------6---9-6---9-6-----6-----6---9-6-----------------------|
G|-------3h5-----------------------------6-----9h10-8-5\3-------------|
D|-6-------------6-----6-----3-----3----------------------------------|
A|--------------------------------------------------------------------|
E|--------------------------------------------------------------------|

e|------------4-------------------------------------------------------|
B|----9-6-------6---9-6---9-6---8---8/9-9--9---8-----8----------------|
g|-------3h5----------------------8-8------------8-----8--------------|
d|-6-------------6-----6----------------------------------------------|
a|---------------------------6-----------6--6-----6-------------------|
E|--------------------------------------------------------------------|

e|---------------------4-----4----------------------------------------|
B|----9-6----------------6-----6---8---8/9-9--9---8-----8-------------|
g|----------------3h5----------------8-8------------8-----8-----------|
d|-6-----9h10-8-6-3-------3-------------------------------------------|
a|------------------------------6-----------6--6-----6----------------|
E|--------------------------------------------------------------------|

e|---------------------4-------4--------------------------------------|
B|----9-6----------------6-------6---8-----8-----8--------------------|
g|-------------------------------------8-----8-----8------------------|
d|----------------3h5-----3/5-----------------------------------------|
a|-6-----9/10-8-6-3---------------6-----6-----6-----------------------|
E|--------------------------------------------------------------------|

That's basically the song. It repeats a few times and has little changes in notes. 
but you can figure em' out. ;)

____________________________________________________

 cause I'm so scared of dying, since your fall
I'm so scared of dying, when you watched it go down down

yeah i lost your face in the fire near Jammison hall
while your sister and brother read chapters on how your skin burned

your singing hallelujah and the angels came and took you down
you asked the right direction, and they told its protection you know

did you believe them?
or are they liars?

cause I'm so scared of dying, since i saw your skin fall
I'm so scared of dying, since we watched it go down down down

i told you i need you, when you screamed hallelujah here we go
i hoped you believed me when i told you you were beautiful

(cause i meant it man) but i didn't always mean.
does that make me a liar?

there's cuts on my fingers, from the laundry i've done
washing out all your prints, the fire down below

don't worry about it, i heard what you said and it's good
and i appreciate it more than any other man ever could

i believe you, anyways
i believe you, any day

when i told you i loved you god dammit i meant it
when i told you i loved you, good jesus, i meant it

now your legs look like firecrackers, are you still alive
yeah no sh*t your not breathing, but man i can feel you inside!

don't waste away, under the ground
cause I'm wasting away, under the ground
            
Submit corrections

comments powered by Disqus
↑ Back to top | Right Away Great Captain Tabs for Cause Im So Scared Of Dying. Lyrics for acoustic guitar and electric guitar. Tablatures and chords are parodies/interpretations of the original songs. You may use it for private study, scholarship, research or language learning purposes only