» » »

The Zephyr Song Bass tabs (ver.1)

Artists:  A B C D E F G H I J K L M N O P Q R S T U V W X Y Z # 

The Zephyr Song Bass tabs (ver.1)

Red Hot Chili Peppers
Rating:
0/5 (0 votes)

Tabs too difficult? Try these video lessons and learn fast.
                bassticular presents:

Red Hot Chili Peppers
Zephyr Song
Bass Part




BEGINNING MEASURE

G--------------
D--------------
A--------------
E--5--3--O--1--


G
D
A
E  5--7--5--3--5--3--O--7--O-1-8

  2X 3X 2X 2X 3X 2X  1X 1X 1X 1X 1X


TIMES TO PLAY EACH NOTE DIRECTLY ABOVE


CHORUS


G----------------------------------
D----------------------------------
A---3-3---3-3---------O-O----------
E-------3---------------------O-1-1
      QUICK NOTE----------->HERE TOO!
      FOR STYLE          (JUST THE O
                          IS QUICK)




THANKS, THIS IS A GREAT SONG TO PLAY FOR FUN
IVE GIVEN YOU SOME EXTRA NOTES TO PUT IN TO FUNK
IT UP AND SPICE IT UP.  MAKE YOUR OWN TOO
                             -bassticular

bassticular presents:

Red Hot Chili Peppers
Zephyr Song
Bass Part




BEGINNING MEASURE

G--------------
D--------------
A--------------
E--5--3--O--1--


G
D
A
E  5--7--5--3--5--3--O--7--O-1-8

  2X 3X 2X 2X 3X 2X  1X 1X 1X 1X 1X


TIMES TO PLAY EACH NOTE DIRECTLY ABOVE


CHORUS


G----------------------------------
D----------------------------------
A---3-3---3-3---------O-O----------
E-------3---------------------O-1-1
      QUICK NOTE----------->HERE TOO!
      FOR STYLE          (JUST THE O
                          IS QUICK)




THANKS, THIS IS A GREAT SONG TO PLAY FOR FUN
IVE GIVEN YOU SOME EXTRA NOTES TO PUT IN TO FUNK
IT UP AND SPICE IT UP.  MAKE YOUR OWN TOO
                             -bassticular

bassticular presents:

Red Hot Chili Peppers
Zephyr Song
Bass Part




BEGINNING MEASURE

G--------------
D--------------
A--------------
E--5--3--O--1--


G
D
A
E  5--7--5--3--5--3--O--7--O-1-8

  2X 3X 2X 2X 3X 2X  1X 1X 1X 1X 1X


TIMES TO PLAY EACH NOTE DIRECTLY ABOVE


CHORUS


G----------------------------------
D----------------------------------
A---3-3---3-3---------O-O----------
E-------3---------------------O-1-1
      QUICK NOTE----------->HERE TOO!
      FOR STYLE          (JUST THE O
                          IS QUICK)




THANKS, THIS IS A GREAT SONG TO PLAY FOR FUN
IVE GIVEN YOU SOME EXTRA NOTES TO PUT IN TO FUNK
IT UP AND SPICE IT UP.  MAKE YOUR OWN TOO
                             -bassticular
            
Tabs too difficult? Try these video lessons and learn fast.


comments powered by Disqus
↑ Back to top | Tablatures and chords are parodies/interpretations of the original songs. You may use it for private study, scholarship, research or language learning purposes only