» » »

Red Hot Chili Peppers, Slowly Deeply Bass tabs (ver.1)

Artists:  A B C D E F G H I J K L M N O P Q R S T U V W X Y Z # 

Slowly Deeply Bass tabs (ver.1)

Red Hot Chili Peppers Tabs
 Rating:
4/5 (4 votes)
Slowly Deeply lessons Tabs too difficult? Try these video lessons and learn fast
                Tuning: (D,A,D,G,)



Fig. 1


G-|------------------------------|--------------------------------|-
D-|------------------------------|--------------------------------|-
A-|------------------------------|--------------------------------|-
D-|--0----0--0-3-2--0--0--0-2h3--|--0----0--0-0-0--0-0-8--0-8h10--|-


G-|------------------------------|--------------------------------|-
D-|------------------------------|--------------------------------|-
A-|------------------------------|--------------------------------|-
D-|--0----0--0-3-2--0--0--0-2h3--|--0----0--0-0-0--0-0-8--0-8h10--|-



Fig. 2


G-|------------------------------|----------------------------|-
D-|------------------------------|----------------------------|-
A-|--------------4--4------------|-----------4----------------|-
D-|--5--5--5--5------------------|--5--5--5-------------------|-


G-|------------------------------|----------------------------|-
D-|------------------------------|----------------------------|-
A-|--------------4--4------------|-----------4----------------|-
D-|--5--5--5--5------------------|--5--5--5-------------------|-



Fig. 3


G-|----------------------------|----------------------------|-
D-|----------------------------|----------------------------|-
A-|----------------------------|----------------------------|-
D-|--0-0h2-2----------------0--|--0h2-2-2----------------0--|-


G-|--------------------------|----------------------------|-
D-|--------------------------|----------------------------|-
A-|--------------------------|----------------------------|-
D-|--0h2-2----------------0--|--0h2-2-2----------------0--|-


G-|--------------------------|----------------------------|-
D-|--------------------------|----------------------------|-
A-|--------------------------|----------------------------|-
D-|--0h2-2----------------0--|--0h2-2-2----------------0--|-


G-|--------------------------|-----------------------------|-
D-|--------------------------|-----------------------------|-
A-|--------------------------|-----------------------------|-
D-|--0h2-2----------------0--|--0h2-2-2--------------------|-



Fig. 4


G-|------------------------------|----------------------------|-
D-|------------------------------|----------------------------|-
A-|--------------4--4------------|-----------4----------------|-
D-|--5--5--5--5------------------|--5--5--5-------------------|-


G-|------------------------------|----------------------------|-
D-|------------------------------|----------------------------|-
A-|--------------4--4------------|-----------4----------------|-
D-|--5--5--5--5------------------|--5--5--5-------------------|-


G-|------------------------------|----------------------------|-
D-|------------------------------|----------------------------|-
A-|--------------4--4------------|-----------4----------------|-
D-|--5--5--5--5------------------|--5--5--5-------------------|-


G-|------------------------------|---------------------------|-
D-|------------------------------|---------------------------|-
A-|--------------4--4------------|-----------4---------------|-
D-|--5--5--5--5------------------|--5--5--5---------------0--|-

G-|---------------------------|-
D-|---------------------------|-
A-|---------------------------|-
D-|--0h2-2--------------------|-
            
Submit corrections

comments powered by Disqus
↑ Back to top | Red Hot Chili Peppers Bass for Slowly Deeply. Lyrics for acoustic guitar and electric guitar. Tablatures and chords are parodies/interpretations of the original songs. You may use it for private study, scholarship, research or language learning purposes only