» » »

Red Hot Chili Peppers, Save Teh Population Tabs (ver.1)

Artists:  A B C D E F G H I J K L M N O P Q R S T U V W X Y Z # 

Save Teh Population Tabs (ver.1)

Red Hot Chili Peppers Tabs
 Rating:
4/5 (4 votes)
Save Teh Population lessons Tabs too difficult? Try these video lessons and learn fast
                Intro
(Part 1)
E-3-6-1------10-10-10--3-6-1-----8-8-8--3-6-1------5-5-5h6p3-0h3----
B--------4-3-----------------4-3--------------4-3--------------------
G--------------------------------------------------------------------
D--------------------------------------------------------------------
A--------------------------------------------------------------------
E--------------------------------------------------------------------
	   (Part 2)	
E---------3-6-1-----13-13-13-13-13-13-13-3-6-1---11-11-11-11-11-11-11
B-3-3-3-3-------4-3----------------------------4-3-------------------
G--------------------------------------------------------------------
D--------------------------------------------------------------------
A--------------------------------------------------------------------
E--------------------------------------------------------------------

E-10-10-10-10-10-10-10-8-8-8-8-8-8-8-6-6-6-6-6-6-6-5-5-5-5-5-5-5-4-4- 
B--------------------------------------------------------------------
G--------------------------------------------------------------------
D--------------------------------------------------------------------
A--------------------------------------------------------------------
E--------------------------------------------------------------------

E--------------------------------------------------------------------
B--------------------------------------------------------------------
G----5-8-1-0----6/8-8-8-8--5-8-1-0----8/11-11-11-11--5-8-1----------
D--------------------------------------------------------------------
A--------------------------------------------------------------------
E--------------------------------------------------------------------

E--------------------------------------------------------------------
B--------------------------------------------------------------------
G-11-11-11-11-11--11-11-11-11-11--10-10-10-10-10--11-11-11-11-11-----
D-11-11-11-11-11--11-11-11-11-11--10-10-10-10-10--11-11-11-11-11-----
A--9--9--9--9--9---9--9--9--9--9---8--8--8--8--8---9--9--9--9--9-----
E--------------------------------------------------------------------

(pre chorus)
E-----        -----     ----     -----   -----   ----- 
B-----        -----     ----     -----   -----   -----    
G-11-   X16   -10-- X16 -11- X16 -12- X8 -13- X4 -14-- X4
D-11-         -10--     -11-     -12-    -13-    -14--
A-9--         -8---     --9--    -10-    -11-    -12--
E----         -----     -----    -----   -----   -----     

(Chorus)
E-------10-----8-10-8-10---
B-8-8------8---------------
G--------------------------
D-------------------------- X15
A--------------------------
E--------------------------

Repeat from Part 2
Chorus X2
            
Submit corrections

comments powered by Disqus
↑ Back to top | Red Hot Chili Peppers Tabs for Save Teh Population. Lyrics for acoustic guitar and electric guitar. Tablatures and chords are parodies/interpretations of the original songs. You may use it for private study, scholarship, research or language learning purposes only