» » »

Red Hot Chili Peppers, Roller Coaster Of Love Tabs (ver.1)

Artists:  A B C D E F G H I J K L M N O P Q R S T U V W X Y Z # 

Roller Coaster Of Love Tabs (ver.1)

Red Hot Chili Peppers Tabs
 Rating:
4/5 (4 votes)
Roller Coaster Of Love lessons Tabs too difficult? Try these video lessons and learn fast
1
                Intro
start after the guy says: YOU GIVE ME THAT FUNNY FEELING IN MY TUMMY...

E-7--7--5-5-5--4-4---4-4-4-4--5-5-5--7-7-
B-7--7--5-5-5--4-4---4-4-4-4--5-5-5--7-7-
G-8--8--6-6-6--5-5---5-5-5-5--6-6-6--8-8-
D-9--9--7-7-7--6-6---6-6-6-6--7-7-7--9-9-
A----------------------------------------
E----------------------------------------   x 12

Chorus (...Your love is like a rollercoaster...)
e|----------------------------------------------
B|----------------------------------------------
G|----------------------------------------------
D|--x-5-x-5-x-5-x-5-x-5-5-5-5-x-5-x-5-6-6-7-7/--
A|--x-5-x-5-x-5-x-5-x-5-5-5-5-x-5-x-5-6-6-7-7/--
E|--x-3-x-3-x-3-x-3-x-3-3-3-3-x-3-x-3-4-4-5-5/-- 

E-7--7--5-5-5--4-4---4-4-4-4--5-5-5--7-7-
B-7--7--5-5-5--4-4---4-4-4-4--5-5-5--7-7-
G-8--8--6-6-6--5-5---5-5-5-5--6-6-6--8-8-
D-9--9--7-7-7--6-6---6-6-6-6--7-7-7--9-9-
A----------------------------------------
E---------------------------------------- x8

Chorus (...Your love is like a rollercoaster...)
e|----------------------------------------------
B|----------------------------------------------
G|----------------------------------------------
D|--x-5-x-5-x-5-x-5-x-5-5-5-5-x-5-x-5-6-6-7-7/--
A|--x-5-x-5-x-5-x-5-x-5-5-5-5-x-5-x-5-6-6-7-7/--
E|--x-3-x-3-x-3-x-3-x-3-3-3-3-x-3-x-3-4-4-5-5/-- 

stop for 8 bars...then play again on...

rollercoaster...of love...
E-7--7--5-5-5--4-4---4-4-4-4--5-5-5--7-7-
B-7--7--5-5-5--4-4---4-4-4-4--5-5-5--7-7-
G-8--8--6-6-6--5-5---5-5-5-5--6-6-6--8-8-
D-9--9--7-7-7--6-6---6-6-6-6--7-7-7--9-9-
A----------------------------------------
E---------------------------------------- x6

Chorus (...Your love is like a rollercoaster...)
e|----------------------------------------------
B|----------------------------------------------
G|----------------------------------------------
D|--x-5-x-5-x-5-x-5-x-5-5-5-5-x-5-x-5-6-6-7-7/--
A|--x-5-x-5-x-5-x-5-x-5-5-5-5-x-5-x-5-6-6-7-7/--
E|--x-3-x-3-x-3-x-3-x-3-3-3-3-x-3-x-3-4-4-5-5/-- 
keep playing to end and fade out
            
Submit corrections

comments powered by Disqus
↑ Back to top | Red Hot Chili Peppers Tabs for Roller Coaster Of Love. Lyrics for acoustic guitar and electric guitar. 1 Tablatures and chords are parodies/interpretations of the original songs. You may use it for private study, scholarship, research or language learning purposes only