» » »

Red Hot Chili Peppers, Quick Jam Bass tabs (ver.1)

Artists:  A B C D E F G H I J K L M N O P Q R S T U V W X Y Z # 

Quick Jam Bass tabs (ver.1)

Red Hot Chili Peppers Tabs
Rating:
0/5 (0 votes)
Quick Jam lessons Tabs too difficult? Try these video lessons and learn fast
                Funkehhhh :D

Bass
G|--------------------------------|------------------------------|
D|--------------------------------|------------------------------|
A|------------------1---4-3-1-----|------------------------------|
E|--3-3---3---3-1-3-------------0-|-3-3---3---3-1-1-1---1-2-2—2--|

G|--------------------------------|-----------------------------|
D|--------------------------------|----------5-3----------------|
A|------------------1---4---3-1---|--------------5-0-3---1-3-0--|
E|--3-3---3---3-1-3-------------0-|-3-3---3---------------------|


Bass/Guitar
G|--------------------------------|---------------------------------|
D|--------------------------------|----------2-3-0------------------|
A|------------------1---4---3-1---|----------------1-3-0------------|
E|--3-3---3---3-1-3-------------0-|-3-3---3--------------1-0-1---0--|

G|--------------------------------|-----3-2---------3----------|
D|----------------------0-3-2---0-|-5-3-------0-5-3---3---3-5--|
A|------------------1-------------|----------------------------|
E|--3-3---3---3-1-3---------------|----------------------------|


Bass/Guitar/Drums
G|--------------------------------|-----------3--------------------|
D|------5---3---5---0-------------|-----5---5---5---3-----3--------|
A|----------------------3-5-3-0-1-|---------------------5---5-3-5--|
E|--3-----------------------------|-3------------------------------|

G|--------------------------|------------------------|
D|--------------------------|------------------------|
A|------1-------------------|------------------------|
E|--3-------3---1---1---1-2-|-1---1---1-0---1---1-2--|

G|------------3---------3-------|--------------------------|
D|------5---5-----5---5---5-3-5-|-----3---3-5---3---3------|
A|------------------------------|---------------------3-5--|
E|--3---------------------------|-3------------------------|

G|--------------3-------------|---------3--------------------|
D|------5---5-------5---5-3-5-|-----5-----5-----3------------|
A|----------------------------|---------------------5-3------|
E|--3-------------------------|-3-----------------------1-3--|
            
Submit corrections

comments powered by Disqus
↑ Back to top | Red Hot Chili Peppers Bass for Quick Jam. Lyrics for acoustic guitar and electric guitar. Tablatures and chords are parodies/interpretations of the original songs. You may use it for private study, scholarship, research or language learning purposes only