» » »

Pritty Little Ditty Bass tabs (ver.1)

Artists:  A B C D E F G H I J K L M N O P Q R S T U V W X Y Z # 

Pritty Little Ditty Bass tabs (ver.1)

Red Hot Chili Peppers
Rating:
0/5 (0 votes)

Tabs too difficult? Try these video lessons and learn fast.
                Pritty Little Ditty:Sic song dis is pritty much spot on the timein aint hard so ye enjoy!

riff1

:--------10h12----------10h12-12-10-------------10h12p10h12-------10h12-12-10
:-----12------------12x----------------------12-----------------12-----------
:---------------------------------------------------------------------------
:10-x----------x10----------------x---10-x----------------10-x-------------

riff2

:----------------
:-----10----10---
:--10----10----10
:8---------------

riff3

:--17-16----------17-17-19-19----------------
:--------19-19-19----------------------------
:-0--0--0--0--0--0--0--0--0------------------
:--------------------------------------------

riff4

:--6-7-9-7-6-9-11-12-11-9-11-12-14-12-11----------------
:-------------------------------------------------------
:-0-0-0-0-0-0-0--0--0--0-0--0--0--0--0------------------
:-------------------------------------------------------

riff5

:---
:---
:0~-
:---
            
Tabs too difficult? Try these video lessons and learn fast.


comments powered by Disqus
↑ Back to top | Tablatures and chords are parodies/interpretations of the original songs. You may use it for private study, scholarship, research or language learning purposes only