» » »

Mellowship Slinky In Bminor Bass tabs (ver.1)

Artists:  A B C D E F G H I J K L M N O P Q R S T U V W X Y Z # 

Mellowship Slinky In Bminor Bass tabs (ver.1)

Red Hot Chili Peppers
Rating:
0/5 (0 votes)

Hard to play? Try these video lessons and learn fast.
                “Mellowship Slinky in Bminor”
Red Hot Chili Peppers (bassist Flea)

Standard Tuning (E,A,D,G)

Part A: Intro and between verses etc.
G-----------------------------------------------------------------------------------------------------
D--------------0-1-2------------0------2-2-0-2-----------------0-1-2--------------0-1-2--------
A—4-3-2-0----------------2-------2----------------4-3-2-0--------------------0-----------------
E-----------------------0-0-------------------------------------------------0-0------------------0-0

G--------------------------------------------------------------------------------------------------
D--------------0-1-2------------0-------2-2-0-2----------------0-1-2---------------0---------
A—4-3-2-0-----------------2------2-----------------4-3-2-0------------------0----------0---
E------------------------0-0------------------------------------------------0-0-------------------

G---8--------------
D------7------------
A-----------9-------
E----------------7---

Part B: “I got a mellowship, I got a fellowship…” 
G--------------------8------------------------------8---------------------------------8------------
D---9-9-7h9-9-7------7----------9-9-9p7-7-7-----7-------------9-9-7h9-9-7------7---------
A----------------------------9-----------------------------9---------------------------------9-------
E--------------------------------7-----------------------------7---------------------------------7---
				 
				  Ending 1
G---------------------8-----------   -----------
D—9-9-9p7-7-7-------7--------  ---9-8-7-
A----------------------------9----   -----------
E--------------------------------7-  -----------   

Ending 2
G-----------------------------------
D—9-8-7------------------7-8-9-
A------------9-8-7-5-7-9---------
E-----------------------------------

Part C: “Good God…”
G--------------------------
D--------------------------
A---5h7-5h7-0h7-0h7--
E--------------------------

SONG FORMAT:
Part A
Part B w/ Ending 1
Part B w/ Ending 2
Part C (X2)?
You can work out how many times to play it. It’s a pretty tricky song, but once you get the format right its really ace!J
*owthathurts
            
Hard to play? Try these video lessons and learn fast. | Correct




comments powered by Disqus
↑ Back to top | Tablatures and chords are parodies/interpretations of the original songs. You may use it for private study, scholarship, research or language learning purposes only