» » »

Red Hot Chili Peppers, Mellowship Slinky In B Flat Bass tabs (ver.1)

Artists:  A B C D E F G H I J K L M N O P Q R S T U V W X Y Z # 

Mellowship Slinky In B Flat Bass tabs (ver.1)

Red Hot Chili Peppers Tabs
 Rating:
4/5 (4 votes)
Mellowship Slinky In B Flat lessons Tabs too difficult? Try these video lessons and learn fast
1
                Mellowship Slinky In B Major


Intro:
G-|----------------|--------------------|----------------|
D-|----------------|--------------------|----------------|
A-|-4--3--2--0-5-6-|-7-----5--7-7--5-7\-|-4--3--2--0-5-6-|
E-|----------------|--0-0-7-7-----------|----------------|

G-|-------------------|----------------|--------------------|
D-|-------------------|----------------|--------------------|
A-|-7-----5--7-----5--|-4--3--2--0-5-6-|-7-----5--7--7-5-7\-|
E-|--0-0-7-7--0-0-7-7-|----------------|--0-0-7-7-----------|

G-|----------------|--------------8-------|
D-|----------------|----------------7-----|
A-|-4--3--2--0-5-6-|-7-----5--7-------9---|
E-|----------------|--0-0-7-7--0--------7-|


Verse bass figure:
G-|---------------8-------|--------------8-------|-------------8-------|
D-|-9-9---x9-9--x---7-----|-9-9--x7-7--7---7-----|-9-9--9-9--x---7-----|
A-|-------------------9---|------------------9---|-----------------9---|
E-|---------------------7-|--------------------7-|-------------------7-|

G-|----------8-------|------------8-------|--------------8-------|
D-|-9--8--7----7-----|-9-9--x9-9----7-----|-7-7--x7-7--7---7-----|
A-|--------------9---|----------------9---|------------------9---| 
E-|----------------7-|------------------7-|--------------------7-|

G-|--------------8-------|------------8-------|
D-|-9-9--x9-9--x---7-----|----------x---7-----|
A-|------------------9---|----------------9---|
E-|--------------------7-|-7--6--5----------7-|


End of 1st verse:
G-|----------------|-------------------|
D-|-9--8--7--------|---------------7-8-|
A-|---------8/9--8-|-7--5--7--8/9------|
E-|----------------|-------------------|


End of 2nd and 3th verse 
G-|------------------|
D-|-9--8--7----------|
A-|-----------9----5-|
E-|------------------|


Chorus:
G-|------------------------|-----------------------|
D-|----------------5-------|---------------5-------|
A-|-7-5-7---5-7-5-7---7--4-|-5-4-5--4-5-4-5---4--5-|
E-|------------------------|-----------------------|
Repeat 3 times


End of chorus:
G-|-----------------|
D-|--5---4---3------|
A-|--------------5--|
E-|-----------------|
1st time to 3rd verse. 2nd time to guitar solo.


Guitar solo:
G-|---------------|-------------------|-------------------|
D-|-------2---4---|------0---2---4----|------0---2---4----|
A-|-2---5-------2-|-1/2-------------2-|-1/2-------------2-|
E-|---------------|-------------------|-------------------|

G-|-------------------|-----------------|--------------------|
D-|------0---2---4----|-7---5/7-\4--3-2-|-5/7---5/7\4--4-3-2-|
A-|-1/2-------------2-|-----------------|--------------------|
E-|-------------------|-----------------|--------------------|

G-|----------------|--------------8-------|
D-|----------------|----------------7-----|
A-|----------------|------------------9---|
E-|-3/5--3--2--1-0-|-3/5---3--2---------7-|


Outro:
G-|----------------|--------------------|----------------|
D-|----------------|--------------------|----------------|
A-|-4--3--2--0-5-6-|-7-----5--7-7--5-7\-|-4--3--2--0-5-6-|
E-|----------------|--0-0-7-7-----------|----------------|

G-|-------------------|----------------|--------------------|
D-|-------------------|----------------|--------------------|
A-|-7-----5--7-----5--|-4--3--2--0-5-6-|-7-----5--7--7-5-7\-|
E-|--0-0-7-7--0-0-7-7-|----------------|--0-0-7-7-----------|

G-|----------------|--------------|
D-|----------------|--------------|
A-|-4--3--2--0-5-6-|-7-----5--7---|
E-|----------------|--0-0-7-7---0-|
            
Submit corrections

comments powered by Disqus
↑ Back to top | Red Hot Chili Peppers Bass for Mellowship Slinky In B Flat. Lyrics for acoustic guitar and electric guitar. 1 Tablatures and chords are parodies/interpretations of the original songs. You may use it for private study, scholarship, research or language learning purposes only