» » »

Red Hot Chili Peppers, Hollywood Tabs (ver.1)

Artists:  A B C D E F G H I J K L M N O P Q R S T U V W X Y Z # 

Hollywood Tabs (ver.1)

Red Hot Chili Peppers Tabs
 Rating:
4/5 (4 votes)
Hollywood lessons Tabs too difficult? Try these video lessons and learn fast
                

Intro:  Played with Chorus

-||----10----10--10------------------------------------------------------||-
-||----10----10--10------------------------------------------------------||-
-||----10----10--10------------------------------------------------------||-
-||-----9-----9---9----7h8--10--8----------------------------------------||-
-||----10----10--10----------------10----8-------------------------------||-
-||-----------------------------------------10--6----8-------------------||- x2
                                                                              
Verse Riff: Clean sound

-||-------------------------------------|------------------------------------||-
-||-------------------------------------|------------------------------------||-
-||----5--3--x-3------------------------|--5--3--x-3-------------------------||-
-||---------------x-3--5--x-5-5--5-5----|-------------x-3--5--x--5-5--5-5----||-
-||-------------------------------------|------------------------------------||-
-||-------------------------------------|------------------------------------||-

Verse Variations:     

-||-------------------------------------|--------------------------------||--
-||-------------------------------------|----------------)-|-|-|--|\-----||--
-||----5--3--x-3------------------------|--5--3--x-3--x-5--5-5-5--5-p3---||--
-||---------------x-3--5--x-5-5--5-5----|--------------------------------||--
-||-------------------------------------|--------------------------------||--
-||-------------------------------------|--------------------------------||--
                                                                         
Chorus: 

                                             Bb       F        G
-||-------------------------------------|----------------------------------||-
-||-------------------------------------|----3-----------------------------||-
-||----5--3--x-3------------------------|----3--------2--------4-----------||-
-||---------------x-3--5--x-5-5--5-5----|----3--------3--------5-----------||-
-||-------------------------------------|----1--------3--------5-----------||-
-||-------------------------------------|-------------1--------3-----------||-
    
Guitar Solo: With Chorus

-||------------------------------------------------)\----------||-
-||-----)--3--6----6p5p3--5----)\-----------------5)\--5--3----||-
-||----5----------------------5--~~~~---5-3-5--5--5----5--3----||-
-||------------------------------------------------------------||-
-||------------------------------------------------------------||-
-||------------------------------------------------------------||-
                                                                              
                                                       Pinch Harmonic
-||-------------------------------------------------------------------------||-
-||---------------------------------)-------------------)-------------------||-
-||----3--------------3h5p3-----3--5--5--3---5--5---3--5--5--3--5--5-3~~----||-
-||-------5-5----3h5---------5-------------------------*--------------------||-
-||-------------------------------------------------------------------------||-
-||-------------------------------------------------------------------------||-
                                         )                )                )~~~~~ 
-||---)~~~~----------------------6--8--8-6--------6--8--8-6------------6--8------||-
-||--6------6--3---6p5p3--5---8-------------8-8~~------------8-8~~--8------------||-
-||------------------------------------------------------------------------------||-
-||------------------------------------------------------------------------------||-
-||------------------------------------------------------------------------------||-
-|-------------------------------------------------------------------------------||-

Chorus 2 & 3 : Played by an other guitar with chorus

                                Bb       F        G 
-||------------------)\----|-------------------------------||--
-||-----------3-----5)\----|----3--------------------------||--
-||-----------3-----5------|----3--------2--------4--------||--
-||--------5-----5---------|----3--------3--------5--------||--
-||------------------------|----1--------3--------5--------||--
-||------------------------|-------------1--------3--------||--
            
Submit corrections

comments powered by Disqus
↑ Back to top | Red Hot Chili Peppers Tabs for Hollywood. Lyrics for acoustic guitar and electric guitar. Tablatures and chords are parodies/interpretations of the original songs. You may use it for private study, scholarship, research or language learning purposes only