» » »

Gretin Son Tabs (ver.1)

Artists:  A B C D E F G H I J K L M N O P Q R S T U V W X Y Z # 

Gretin Son Tabs (ver.1)

Red Hot Chili Peppers
Rating:
0/5 (0 votes)

Hard to play? Try these video lessons and learn fast.
                red hot chilli peppers
the gretting song


e|--5/8-\5-------5/8-\5-
b|--5/8-\5-------5/8-\5-
g|--6/9-\6-------6/9-\6-
d|--7/10\7-------7/10\7-repeat
a|--7/10\7-------7/10\7-
E|--5/8-\5-------5/8-\5-

e|------------------------
b|------------------------
g|-------9---11-----------
d|---9---9---11---repeat--
a|---9---7---9------------
E|---7--------------------

this is the main riff listen to the the cd to know how to play it
note: all the chords may be strum to sound good if you have any
please rate this tab coming soon corrections
            
Hard to play? Try these video lessons and learn fast. | Correct




comments powered by Disqus
↑ Back to top | Tablatures and chords are parodies/interpretations of the original songs. You may use it for private study, scholarship, research or language learning purposes only