>
 >
Gong Li

Gong Li Guitar Tabs

Red Hot Chili Peppers - Gong Li chords, tabs, tablatures, lyrics

Guitar lessons | Add/correct | Request | Top 50 tabs Artists:  A B C D E F G H I J K L M N O P Q R S T U V W X Y Z 0-9

Gong Li Guitar Tabs – Red Hot Chili Peppers

CD, Sheet music, Poster

Do you like Gong Li? Share with your friends now
Bass TabsChordsTabsUkulele
Record Label: WEA/Warner Bros. 

Catalog Number: 47386 

Producer: Rick Rubin 

Release Date: June 08 1999






questions, comments, critisism, death threats, 


and if you just want to say thank you, then that would be very appreciated   :)





I found this track on my 'californication, disc 2' because I'm here in 

australia.  Most of you people probably have it on the scar tissue 

single.  Either way, no one has the lyrics yet! Someone kind enough to type 

the out and send them to me?

I've got a hunch that the lyrics might be about Frusciante... I had heard

that they had a little, umm, snap at eachother at some stage or something...

bah, maybe it was just a rumour.  

The lyrics on this album are pretty good, I think... I mean I was reading 

in rolling stone that there were so many new songs coming out of jams in

flea's garage that anthony couldn't keep up with providing lyrics! So

I was expecting them to be rushed, maybe dodgy, but I think they're 

actually pretty fantastic.  There's a lot about John Frusciante.




know what 'the forum' is, go there and meet some nice people) were

saying that this song 'sucked'.  Well, I dont think it's very... careful 

to just say that.  If you dont like a song, you dont have to like it, 

and it certainly doesn't mean the song sucks.  I dont like porcelain 

much, maybe I'll grow into it.



Either way, I like this song... it's really cute.  :]



I haven't tabbed the chorus yet, but I reckon this riff takes

up more than half the song anyway.



key: 



x          muted note (deaden the string when you pluck it)







    Intro: (it's a long one)



    Emaj

e:-----------------------------------------------4-4----------|

B:---------------------5-5---------------------------7-7-5----|

G:-------4-6-------4-6-----6-------4-6-------4-6--------------|

D:-----6---------6---------------6---------6------------------|

A:--7---------7---------------7---------7---------------------|

E:------------------------------------------------------------|

    0:00









e:------------------------------------------------7-7-4-4-------|

B:----------------------5-5-------------------------------5-----|

G:--------4-6-------4-6-----6-------4-6-------4-6---------------|

D:------6---------6---------------6---------6-------------------|

A:---7---------7---------------7---------7----------------------|

E:--------------------------------------------------------------|

     0:06









e:--------------------------------------------------4-4----------|

B:------------------------5-5---------------------------7-7-5----|

G:---------4-6--------4-6-----6-------4-6-------4-6--------------|

D:-------6----------6---------------6---------6------------------|

A:----7----------7---------------7---------7---------------------|

E:---------------------------------------------------------------|

      0:11









e:-----------------------------------------------7-7-4-4--------|

B:---------------------5-5-------------------------------5------|

G:-------4-6-------4-6-----6-------4-6-------4-6----------------|

D:-----6---------6---------------6---------6--------------------|

A:--7---------7---------------7---------7-----------------------|

E:--------------------------------------------------------------|











e:-------------------------------------------------4-4------------|

B:----------------------5-5----------------------------7-7-5------|

G:--------4-6-------4-6-----6-------4-6-------4-6-----------------|

D:------6---------6---------------6---------6---------------------|

A:---7---------7---------------7---------7------------------------|

E:----------------------------------------------------------------|

     0:22









e:---------------------------------------------------7-7-4-4------|

B:-----------------------5-5---------------------------------5----|

G:---------4-6-------4-6-----6--------4-6-------4-6---------------|

D:-------6---------6----------------6---------6-------------------|

A:----7---------7----------------7---------7----------------------|

E:----------------------------------------------------------------|

      0:28









e:------------------------------------------------4-4----------|

B:---------------------5-5----------------------------7-7-5----|

G:-------4-6-------4-6-----6--------4-6-------4-6--------------|

D:-----6---------6----------------6---------6------------------|

A:--7---------7----------------7---------7---------------------|

E:-------------------------------------------------------------|

    0:34









e:------------------------------------------------7-7-4-4--------|

B:---------------------5-5--------------------------------5------|

G:-------4-6-------4-6-----6-------4-6--------4-6----------------|

D:-----6---------6---------------6----------6-----------------x--|

A:--7---------7---------------7----------7--------------------x--|

E:---------------------------------------------------------------|

    0:39                                                    0:45









no lyrics yet, sorry... 





---



This note is appended to my unfinished tabs.  The last couple 

of days I have been working on transcribing the chili peppers 

new album for guitar, and in some cases for bass too 

(although i've hardly ever picked up a bass)   :)      



I've done some of most of the tracks tonight, but I've got a 

major due yesterday and I've got test week coming up... it's 

too much to finish.  I have tabbed the intros and maybe verses 

to most of the songs, to give everyone a start - the idea is 

to get a network of people tabbing the album so it can be 

accurate and available for bands in the near future!  I don't 

play bass or drums, it would be great if other people could 

help out with transcribing instruments, thanks.  



The other idea of tabbing a little bit is to give all you 

guitarists a start; and please help with the tabbing if you 

think you've got better versions/methods/whatever.  If you 

have any corrections, additions (I haven't added song layouts; 

where choruses go and how many verse riffs to play etc... 

these layouts are really helpful for bands), or comments to 

add then don't be lazy and ignore it, email...!  Everyone who 

contributes will get credit, and thanks in advance for your 

effort.



If you want more transription of this particular track, the 


_friendly polite_ email with a request of what you're after.

  :)    If we get a lot of requests for a particular song, 

it will get more priority... but polite requests get the 

most attention.



Sorry 'bout the legal stuff at the top, 

but it's gotta be there.  :)



---





Written by Anthony Kiedis, Flea, John Frusciante, Chad Smith

(c) 1999 Moebetoblame Music BMI

Lyrics reprinted by permission. All rights reserved. 







-fin-




This TAB transcription was created using TAB MASTER version 1.0





Comments


Popular Red Hot Chili Peppers tabs & chords
Dont Forget Me 3 Bass Tabs
Even You Brutus Bass Tabs
Flea Bass Tabs
Lovin' And Touchin' Bass Tabs
Stone Cold Bush Intro 1 Bass Tabs
After Hours Chords
Brendans Death Song 3 Chords
Falling Into Grace Tabs
Get On Top 3 Tabs
Sikamikanico Tabs


Song lyrics



↑ Back to top | Tablatures and chords are parodies/interpretations of the original songs. You may use it for private study, scholarship, research or language learning purposes only
© 2014 AZChords.com Contact us | Privacy policy | DMCA | Add/correct tabs | Request tabs | Top 50 tabs