>
 >
Easily Live

Easily Live Guitar Tabs

Red Hot Chili Peppers - Easily Live chords, tabs, tablatures, lyrics

Guitar lessons | Add/correct | Request | Top 50 tabs Artists:  A B C D E F G H I J K L M N O P Q R S T U V W X Y Z 0-9

Easily Live Guitar Tabs – Red Hot Chili Peppers

CD, Sheet music, Poster

Do you like Easily Live? Share with your friends now
Tabs
======================================================
*                                                    *
*               Red Hot Chili Peppers                *
*           Easily LIVE - Off The Map DVD            *
*    NOTE: SOLOS ARE DIFFERENT THAN ALBUM VERSION    *
*                                                    *
*=====================================================

Intro/Verse

     Asus2         A open     A17       Fmaj7          Asus2
e:-0-0-0-0-0--0-0-0-0-0-0-0-0-0-0-x-x-0-0-0-0-0-x-0-0-0-0-0-0-0-|
B:-0-0-0-0-0--0-0-0-0-0-0-0-0-0-0-x-x-1-1-1-1-1-x-0-0-0-0-0-0-0-|
G:-2-2-2-2-2b-2-2-2-2-2-2-2p0-0-0-x-x-2-2-2-2-2-x-2-2-2-2-2-2-2-|
D:-2-2-2-2-0--0-0-0-0-0-0-0-0-0-0-x-x-3-3-3-3-3-x-2-2-2-2-2-2-2-|
A:-0-0-0-0-0--0-0-0-0-0-0-0-0-0-0-x-x-3-3-3-3-3-x-0-0-0-0-0-0-0-|
E:-x-x-x-x-x--x-x-x-x-x-x-x-x-x-x-x-x-x-x-x-x-x-x-x-x-x-x-x-x-x-|


Chorus - If you observe the DVD you will clearly see that GOD (JOHN)
         differentiates between open and barrč chords during the chorus.

   OPEN CHORDS   |  BARRE CHORDS
   C    G  Fmaj7 | C    G    F
e:-0----3----0---|-3----3----1---|
B:-1----3----1---|-3----3----1---|
G:-0----0----2---|-5----4----2---|
D:-2----0----3---|-5----5----3---|
A:-3----2----3---|-3----5----3---|
E:-x----3----x---|-3----3----1---|

SOLO 1

e:----------------------------------------------------------|
B:-8-8-8p6-----8-8-8-8-8p6-----8p6-----8p6---8-8-8-12-10-12-|
G:---------7-7-------------7-7-----7-7-----7----------------|
D:----------------------------------------------------------|
A:----------------------------------------------------------|
E:----------------------------------------------------------|

e:-------------------------------------------|
B:-15-15h17-17-17-17-17----------------------|
G:----------------------12-14-14-14-14-14-14-| <---<<< REPEAT THIS SECTION
D:-------------------------------------------|
A:-------------------------------------------|
E:-------------------------------------------|

SOLO 2

e:------------------------------------------------------|
B:-14b-12-15b-12-15b-12-15b-12-15b-12-15b-12-14b-12-----|
G:------------------------------------------------------|
D:------------------------------------------------------|
A:------------------------------------------------------|
E:------------------------------------------------------|

e:------------------------------------------------------|
B:-15b-12-15b-12-15b-12-12h13-13-13-13-13-15b-13-12-----|
G:------------------------------------------------------|
D:------------------------------------------------------|
A:------------------------------------------------------|
E:------------------------------------------------------|

e:--------------------------------------------17-15-17--|
B:-12h13-13-13-13-13-12-10-10-8---13p12-13-13-----------|
G:------------------------------9-----------------------|
D:------------------------------------------------------|
A:------------------------------------------------------|
E:------------------------------------------------------|

e:-15-17-------------------15-13-12-13-12---------------|
B:-------15-15-12h13-13-13----------------12h13-13p12---|
G:------------------------------------------------------|
D:------------------------------------------------------|
A:------------------------------------------------------|
E:------------------------------------------------------|

e:----12----------------12------------------------------|
B:-------13p12-13p12-------13p12-13p12-------12----12b--|
G:-14----------------14----------------14-14----12------|
D:------------------------------------------------------|
A:------------------------------------------------------|
E:------------------------------------------------------|

e:------------------------------------------------------|
B:-12---------------------------------------------------|
G:----14-14-14-14-14-14-12-14-(repeat this note a lot)--|
D:------------------------------------------------------|
A:------------------------------------------------------|
E:------------------------------------------------------|

e:--------------------------------------------------12--|
B:--------------------------------------10/12-12-10-----|
G:----------5-5---------------7/9-9-9-9-----------------|
D:-12-10-12-----7-5-7---7-5-7---------------------------|
A:------------------------------------------------------|
E:------------------------------------------------------|

e:-12-12-15-15-12-12-12-13-12----------15-12-12-13-15b--|
B:----------------------------13-12h13------------------|
G:------------------------------------------------------|
D:------------------------------------------------------|
A:------------------------------------------------------|
E:------------------------------------------------------|


e:-15-12-15-12-12-12--12-15-12-12-12-12-12-12-12-12-----|
B:------------------15------------------------------15--|
G:------------------------------------------------------|
D:------------------------------------------------------|
A:------------------------------------------------------|
E:------------------------------------------------------|


e:----------------------|
B:-13-12-13-12----------|
G:-------------14-12----|
D:-------------------14-|
A:----------------------|
E:----------------------|





Comments


Popular Red Hot Chili Peppers tabs & chords
Stone Cold Bush Intro 1 Bass Tabs
Higher Ground Chords
Brendans Death Song Tabs
Cabron Tabs Tabs
Can't Stop 1 Tabs
Dani California 3 Tabs
Especially In Michigan 1 Tabs
Fortune  Faded Tabs
Midnight Tabs
Under The Bridge 2 Tabs


Song lyrics



↑ Back to top | Tablatures and chords are parodies/interpretations of the original songs. You may use it for private study, scholarship, research or language learning purposes only
© 2014 AZChords.com Contact us | Privacy policy | DMCA | Add/correct tabs | Request tabs | Top 50 tabs