>
 >
Claifornication

Claifornication Guitar Tabs

Red Hot Chili Peppers - Claifornication chords, tabs, tablatures, lyrics

Guitar lessons | Add/correct | Request | Top 50 tabs Artists:  A B C D E F G H I J K L M N O P Q R S T U V W X Y Z 0-9

Claifornication Guitar Tabs – Red Hot Chili Peppers

CD, Sheet music, Poster

Do you like Claifornication? Share with your friends now
Tabs
Song - Californication 
Album - Californication 
Band - Red Hot Chili Peppers
Note - Wicked Song! This is the live acoustic version of Californication, John only played it this way for a couple of gigs, that I know of, so that is probably why you are all dissin my tab.

U = Upstroke
D = Downstroke
H = Hammer on
P = Pull off
/  = Slide
B = Bend up
X = Donít play string

Intro/ Verse:
E ----------------------------------------------------------------------------------
B ------------0--1------------------------------------------------------------------
G -------------------------------------------------0--2-----------------------------
D -------2-----------2----0h2p0--------------------------3--0-----------------------
A ---0------------------------------3--------3--------------------------------------
E ---------------------------------------1------------------------------------------

Riff 1:
E ----------------------------------------------------------------------------------
B -----------1-------------------------------------------------3--------------------
G -------0-------------------0----------------------------2-------------------------
D -----------------------0-------------------3---------0----------------------------
A ---3-----------------------------------3------------------------------------------
E ------------------3---------------1-----------------------------------------------

Bridge:
E ---0------0---------3------3----------1------1-----------1-------1---------------
B ---1------1---------3------3----------1------1-----------3-------3---------------
G ---0------0---------0------0----------2------2-----------2-------2---------------
D ---2------2---------0------0----------3------3-----------0-------0---------------
A ---3------3---------2------2----------x------x-----------x-------x---------------
E ---x------x---------3------3----------x------x-----------x-------x---------------
     D      D         D      D          D      D           D       D

PreChorus:
E ---0---0---0---0---0---0---0-----------0---0---0---0---0---0---0-----------------
B ---1---1---1---1---1---1---1-----------1---1---1---1---1---1---1-----------------
G ---2---2---2---2---2---2---2-----------2---2---2---2---2---2---2-----------------
D ---2---2---2---2---2---2---2-----------3---3---3---3---3---3---3-----------------
A ---0---0---0---0---0---0---0-----------x---x---x---x---x---x---x-----------------
E ---x---x---x---x---x---x---x-----------x---x---x---x---x---x---x----------------
     D   U   D   D   U   D   D           D   U   D   D   U   D   D
Chorus:
E ---0---0-----3---3-----1---1-----1---1-----0---0-----3---3-----1------------------
B ---1---1-----3---3-----1---1-----3---3-----1---1-----3---3-----1------------------
G ---0---0-----0---0-----2---2-----2---2-----0---0-----0---0-----2------------------
D ---2---2-----0---0-----3---3-----0---0-----2---2-----0---0-----3------------------
A ---3---3-----2---2-----x---x-----x---x-----3---3-----2---2-----x------------------
E ---x---x-----3---3-----x---x-----x---x-----x---x-----3---3-----x------------------
     D   D     D   D     D   D     D   D     D   D     D   D     D

Chorus Variation:
E ---0---0-----3---3-----1---1-----1---1-----0---0-----3---3-----1---1---1---1------
B ---1---1-----3---3-----1---1-----3---3-----1---1-----3---3-----1---1---1---1------
G ---0---0-----0---0-----2---2-----2---2-----0---0-----0---0-----2---2---2---2------
D ---2---2-----0---0-----3---3-----0---0-----2---2-----0---0-----3---3---3---3------
A ---3---3-----2---2-----x---x-----x---x-----3---3-----2---2-----x---x---x---x------
E ---x---x-----3---3-----x---x-----x---x-----x---x-----3---3-----x---x---x---x------
     D   D     D   D     D   D     D   D     D   D     D   D     D   D   D   D

Solo Version 1:
E ---5---9---4 / 2---5---9---4 / 2---2---2---0----------------0---3---B2---0--------
B ---------------------------------------------------2---2---2-----------------2----
G ----------------------------------------------------------------------------------
D ----------------------------------------------------------------------------------
A ----------------------------------------------------------------------------------
E ----------------------------------------------------------------------------------

E --5---9---12---14---5---9---12---14---17--14---17---16---14---12---14---12--------
B -----------------------------------------------------------------------------14---
G ----------------------------------------------------------------------------------
D ----------------------------------------------------------------------------------
A ----------------------------------------------------------------------------------
E ----------------------------------------------------------------------------------

E --12------------------------------B14---------------------------------------------
B ------B14---B14---B14---17---14--------17---14-------------17---15---14-----------
G ------------------------------------------------16---14-------------------14------
D ----------------------------------------------------------------------------------
A ----------------------------------------------------------------------------------
E ----------------------------------------------------------------------------------

Solo Version 2:
E -------9-----------9-------------------------------------------------9---12---14--
B ---10---------10------------------------------------------------10----------------
G ---------B11---------B11-11-11P9---------------9-B11------------------------------
D -----------------------------------11-11-9H11----------11---9---------------------
A ----------------------------------------------------------------------------------
E ----------------------------------------------------------------------------------

E --------9--12-B14--17--16--14-------------------------------------------------B14-
B ---10-----------------------------17--14--17--14--B14--B14--B14--17--14-----------
G ----------------------------------------------------------------------------------
D ----------------------------------------------------------------------------------
A ----------------------------------------------------------------------------------
E ----------------------------------------------------------------------------------

E ----------------------------------------------------------------------------------
B ---17--14--------------17--15--14-------------------------------------------------
G -------------16--14-------------------14------------------------------------------
D ----------------------------------------------------------------------------------
A ----------------------------------------------------------------------------------
E  ---------------------------------------------------------------------------------

Song Order:

Intro/ Verse x6
Riff 1 x1
Intro/ Verse x4
Bridge x1
PreChorus x6
Chorus x1
Intro/ Verse x4
Riff 1 x1
Intro/ Verse x4
Bridge x1
PreChorus x6
Chorus Variation x1
Chorus x1
Solo Version 1 OR Solo Version 2 x1
Intro/ Verse x4
Bridge x1
PreChorus x6
Chorus Variation x1
Chorus x1

AND THATíS ALL THERE IS TO IT! HOPE U ENJOY! AND DONT FORGET TO RATE THE TAB! CHEERS! CJB





Comments


Popular Red Hot Chili Peppers tabs & chords
American Ghost Dance Bass Tabs
Buckle Down Bass Tabs
Buckle Down 1 Bass Tabs
Lovin' And Touchin' 1 Bass Tabs
Right On Time 2 Bass Tabs
Breaking The Girl 3 Tabs
City Of Angels Tabs
Especially In Michigan 5 Tabs
Fortune Faded Intro Tabs
Tearjerker 2 Tabs


Song lyrics



↑ Back to top | Tablatures and chords are parodies/interpretations of the original songs. You may use it for private study, scholarship, research or language learning purposes only
© 2014 AZChords.com Contact us | Privacy policy | DMCA | Add/correct tabs | Request tabs | Top 50 tabs