>
 >
Californicaton

Californicaton Guitar Tabs

Red Hot Chili Peppers - Californicaton chords, tabs, tablatures, lyrics

Guitar lessons | Add/correct | Request | Top 50 tabs Artists:  A B C D E F G H I J K L M N O P Q R S T U V W X Y Z 0-9

Californicaton Guitar Tabs – Red Hot Chili Peppers

CD, Sheet music, Poster

Do you like Californicaton? Share with your friends now
Tabs
Hi! This is my first tab attempt. I believe it is the most correct version of Californication.
Any questions, comments etc. would be greatly appreciated.
Thanks!!!

All credit to the LEGENDARY Red Hot Chili Peppers!!!

P.S. I wrote the solo in 8 beat counts, because the phrases are two bars long, and also I found it easier to count and show timing. The start of the notes are on the UNDERLINED numbers.

-------------------------|             ---------------------------|
-----------0h1----------|             ---------------------------|
-------------------------|             ------------0h2-----------|
-------2-----------------|             ---------------------------|
--0----------------------|             -------3------------------|
--------------------------|             --1-----------------------|
   1     +   2 +   3 + 4 +                1    +    2 +   3 + 4 +  

1. Psychic spies from China try to  Steal your mind's elation
The little girls from Sweden dream of Silver screen quotations

2. [It's the] edge of the world in all the Western civilization
The sun may rise in the east but at least it Settles in its final location

3. Marry me girl be my fairy to the world be my Very own constellation
A teenage bride with a baby inside getting high on information

4. Space may be the final frontier but it’s Made in the Hollywood basement
Cobain can you hear the spheres singing’ Song’s off station to station

5. Destruction leads to a very rough road but it Also breeds creation
Like earthquakes are to a girl’s guitar it’s Just another good vibration

-------------------| --------------------|---------------------|-----------------1-------|
------------5------|--------------------|---------------------|--------3--------3-------|
-------5--------5-|------------4-------|------------2--------|-----------------2-------|
-------------------|---------------------|---------------------|-0-----------------------|
---3---------------|------5---------5--|-------3--------3---|--------------------------|
-------------------|---3----------------|---1-----------------|-------------------------|

1. And if you want these kind of dreams it’s Californication

2. It’s understood that Hollywood sells Californication

3. And buy me a star on the boulevard, it’s Californication

4. And Valderon’s not far away, it’s Californication

5. And tidal waves couldn’t save the world from Californication

---------------------------------------|---------------------------------------|
---1---1---1---1---1---1---1---1---|---1---1---1---1---1---1---1---1---|
---2---2---2---2---2---2---2---2---|---2---2---2---2---2---2---2---2---|
---2---2---2---2---2---2---2---2---|---3---3---3---3---3---3---3---3---|
---------------------------------------|---3---3---3---3---3---3---3---3---|
---------------------------------------|---------------------------------------|

---------------------------------------|---------------------------------------|
---1---1---1---1---1---1---1---1---|---1---1---1---1---1---1---1---1---|
---2---2---2---2---2---2---2---2---|---2---2---2---2---2---2---2---2---|
---2---2---2---2---2---2---2---2---|---3---3---3---3---3---3---3---3---|
---------------------------------------|---3---3---3---3---3---3---3---3---|
---------------------------------------|---------------------------------------|

Pre Chorus

1. Pay your surgeon very well to break the spell of ageing
Celebrity skin is that your chin or
Is that war you’re waging?
First born unicorn
Hard core soft porn

2. Born and raised by those who praise
Control the population
Everybody’s been there and I
Don’t mean on vacation
First born unicorn
Hard core soft porn

3. Pay your surgeon very well to break the spell of ageing
Sicker that the rest there is no test
But is this what you’re craving?
First born unicorn
Hard core soft porn

-------------1--1--1----|---0---0-------------|
---3---3----x--x--x----|---6---6------1-1---|
---2---2----x--x--x----|---5---5------2-2---|
---0---0----x--x--x----|---0---0------2-2---|
---3---3----2--2--2----|----------------------|
-------------3--3--3----|----------------------|
    1 + 2 +  3  +   4  +      1 + 2 + 3 + 4 +

Chorus

Dream of Californication
Dream of Californication
[Dream of Californication]
[Dream of Californication]

e|------------9--------------------------------------|------------9-----------------------------------------| 
b|--10----------------------------------------------|--10--------------------------------------------------| 
g|---------------------11b12-[let note ring]-----|-------------------11--b--12------------11-11-11-|
d|----------------------------------------------------|------------------------------------------------------| 
a|----------------------------------------------------|------------------------------------------------------| 
E|----------------------------------------------------|------------------------------------------------------| 
       1 +  2  +  3  +  4  +  5  +  6  +  7  +  8  +      1  +  2  +  3  +  4  +  5  +  6  +  7   +   8  +  

e|--------------------------------------------------------------------| 
b|--------------------------------------------------------------------| 
g|--11p9-----------------------------9----11-b--12---9----------| 
d|---------11-11----------9--11----------------------------11----| 
a|-------------------------------------------------------------------| 
E|-------------------------------------------------------------------| 
     1   +   a    2  +  3  +   4   +     5  +  6  +     7     +     8  +

e|-----------9---12-----14----------------|---------9---12---14b16-------------| 
b|--10-------------------------------------|--10-----------------------------------| 
g|------------------------------------------|----------------------------------------| 
d|------------------------------------------|----------------------------------------| 
a|------------------------------------------|----------------------------------------| 
E|------------------------------------------|----------------------------------------| 
      1 + 2  + 3   + 4 +  5 + 6 + 7 + 8 +    1 + 2 + 3 + 4 + 5 + 6 + 7 + 8 +



-17--16--14-------14--------------------|------------------------------------------------------|
---------------17--------17-14--17------|--14----14-------14--------14--------17----14---|
--------------------------------------------|---------16b17---16b17---16b17-----------------|
--------------------------------------------|------------------------------------------------------|
--------------------------------------------|------------------------------------------------------|
--------------------------------------------|------------------------------------------------------|
  1 + 2 + 3 + 4 + 5 +  6    + 7 +   8 + 

---14b15---12--------12--------------------12--10---9-------|
-------------------14--------14--12--10-------------------10--|

N.B. Put Verbrato’s etc. in and you can change the timing to a little bit more swing-like in the Solo, whatever suits you.

STRUCTURE:

V1
V2
Pre Chorus 1
Chorus

V3
V4
Pre Chorus 2
Chorus [extended]

Solo

V5
Pre Chorus 3
Chorus [extended]

By Jay





Comments


Popular Red Hot Chili Peppers tabs & chords
Brothers Cup Bass Tabs
By The Way 10 Bass Tabs
Brendans Death Song 5 Chords
Tear Correct Chords
Cabron Right Way Tabs
Californication 7 Tabs
Dont Forget Me Live 2 Tabs
One Big Mob Tabs
Time 1 Tabs
Under The Bridge By Mick Maggot Tabs


Song lyrics



↑ Back to top | Tablatures and chords are parodies/interpretations of the original songs. You may use it for private study, scholarship, research or language learning purposes only
© 2014 AZChords.com Contact us | Privacy policy | DMCA | Add/correct tabs | Request tabs | Top 50 tabs